>
 >
Swing

Swing Guitar Tabs

Zebrahead - Swing chords, tabs, tablatures, lyrics

Guitar lessons | Add/correct | Request | Top 50 tabs Artists:  A B C D E F G H I J K L M N O P Q R S T U V W X Y Z 0-9

Swing Guitar Tabs – Zebrahead

CD, Sheet music, Poster

Do you like Swing? Share with your friends now
Tabs


INTRO (w/wah): 
e|--------------------------------|
B|--------------------------------|
G|--14-14-14---12-12-12-----------|
D|--14-14-14---12-12-12---10--11--| (x6)
A|--12-12-12---10-10-10---10--11--|
E|------------------------8---9---|

Intro cont.
e|-------------------------------------------------|
B|-------------------------------------------------|
G|---------------------5--6------------------------|
D|-----7-7-7---5-5-5---5--6--(x3)--7-7-7---5-5-5---|
A|-----7-7-7---5-5-5---3--4--------7-7-7---5-5-5---|
E|-----5-5-5---3-3-3---------------5-5-5---3-3-3---|

VERSE pattern - Play it funky
e|---7-x-9--10-10-x--9---9---9--|
B|---7-x-9--12-12-x-10--10--10--|
G|---7-x-9--12-12-x-11--11--11--| 
D|------------------------------|
A|------------------------------|
E|------------------------------|

Chorus
e|-------------------------------------------------|
B|-------------------------------------------------|
G|---------------------5--6------------------------|
D|-----7-7-7---5-5-5---5--6--(x7)--7-7-7---5-5-5---|
A|-----7-7-7---5-5-5---3--4--------7-7-7---5-5-5---|
E|-----5-5-5---3-3-3---------------5-5-5---3-3-3---|

Fill Guitar 1 
e|-------------------------------|
B|-x1010-x8-x1010-x8-x10x8-------|
G|-------------------------------| (x4)second time (x1)
D|-------------------------------|
A|-------------------------------|
E|-------------------------------|

Bridge 								Bridge Part 2
e|---------------------------------------------------|----------------
B|---------------------------------------------------|----------------
G|-----------------------------------|4-4-4-4|-------|----------------
D|-/9-/10------/9-/10-----/9-/10-----|4-4-4-4|-------|---4---5--------
A|-/9-/10------/9-/10-----/9-/10-----|2-2-2-2|-------|-2---3----4-4-4-
E|-/x-/x--8-7--/x-/x--8-7-/x-/x--8-7-|--P.M.-|-------|----------2-2-2-
   |-P.M.-|

Riff 2 (B = full bend b = half bend; p = pull off)
e|---------12B---12p10---12p10-------------10-12B--|
B|------------------------------12p10--12----------|
G|--4--5-------------------------------------------|
D|--4--5-------------------------------------------|
A|--2--3-------------------------------------------|
E|-------------------------------------------------|





Comments


Popular Zebrahead tabs & chords
Anthem 2 Bass Tabs
Broadcast To The World Bass Tabs
Get Back Bass Tabs
Rescue Me Bass Tabs
Wannabe Bass Tabs
Wasted 3 Bass Tabs
Blur Chords
Im Definitely Not Gonna Miss You Chords
Jagoff Tabs
Mindtrip Tabs


Song lyrics



↑ Back to top | Tablatures and chords are parodies/interpretations of the original songs. You may use it for private study, scholarship, research or language learning purposes only
© 2014 AZChords.com Contact us | Privacy policy | DMCA | Add/correct tabs | Request tabs | Top 50 tabs