» » »

Subtract You Tabs (ver.2)

Artists:  A B C D E F G H I J K L M N O P Q R S T U V W X Y Z # 

Subtract You Tabs (ver.2)

Zebrahead
Rating:
0/5 (0 votes)

Hard to play? Try these video lessons and learn fast.
                Lord Dieb was here
INTRO
TOKAR 2 VECES (play 2 times)
e|-------19----19----16-14-------------------|
B|-------------------------------------------|
G|----16----16----16--------16-16--18-16-15--|

*TOKAR UNA VEZ (play once)
e|-------19----19----16-14-------------------|
B|-------------------------------------------|
G|----16----16----16--------15-15-16---------|

VERSO: "Another day, another clean break..."
e|--------------------------------------------------------------|
B|--------------------------------------------------------------|
G|-----------------10-10-10-10-10-------------------------------|
D|-10-10-10-10-10---8--8--8--8--8---10-10-10-10-10---5-5-5-5-5--|
A|-10-10-10-10-10---8--8--8--8--8----8--8--8--8--8---5-5-5-5-5--|
E|--8--8--8--8--8--------------------8--8--8--8--8---3-3-3-3-3--|

CORO (CHORUS): "Cracked in two, im in you..." 
TOKAR 2 VECES (play 2 times)

e|------------------------|
B|------------------------|
G|--------------7-----10--|
D|-10-----5-----7-----10--|
A|-10-----5-----5------8--|
E|--8-----3---------------|
            
Hard to play? Try these video lessons and learn fast. | Correct




comments powered by Disqus
↑ Back to top | Tablatures and chords are parodies/interpretations of the original songs. You may use it for private study, scholarship, research or language learning purposes only