» » »

Playmate Of The Year Tabs (ver.3)

Artists:  A B C D E F G H I J K L M N O P Q R S T U V W X Y Z # 

Playmate Of The Year Tabs (ver.3)

Zebrahead
Rating:
0/5 (0 votes)

Hard to play? Try these video lessons and learn fast.
                standard 

intro
|--4---4---7---7---5---5-------------|
|----5---5---5---5---5---5--7--4--5--|
|------------------------------------|
|------------------------------------| X2
|------------------------------------|
|------------------------------------|

Intro (rhythm guitar)
|-----------------------------|
|-----------------------------|
|--9-9------------------------|
|--9-9--7-7--9-9-9-9-9-9-9-9--|  x2
|--7-7--7-7--9-9-9-9-9-9-9-9--|
|--7-7--5-5--7-7-7-7-7-7-7-7--|

verse (rhythm & lead)
|-----|                                |-----|
|-----|                                |-----|
|-----|                                |-----|
|--9--|                                |--9--| x8
|--9--|                                |--9--|
|--7--|  then at the end of the verse: |--7--|
                                         P.M.

Pre-chorus
|--4---4---7---7---5---5-------------|
|----5---5---5---5---5---5--7--4--5--|
|------------------------------------|
|------------------------------------| X4
|------------------------------------|
|------------------------------------|

Rhythm guitar
|-----------------------------|
|-----------------------------|
|--9-9------------------------|
|--9-9--7-7--9-9-9-9-9-9-9-9--|  x4
|--7-7--7-7--9-9-9-9-9-9-9-9--|
|--7-7--5-5--7-7-7-7-7-7-7-7--|


Chorus x2

|---------------------------------------------------------------------|
|---------------------------------------------------------------------|
|--9-9-9-9-9-9-9-9----------------------------------------------------|
|--9-9-9-9-9-9-9-9--9-9-9-9-9-9-9-9--7-7-7-7-7-7-7-7--9-9-9-9-9-9-9-9-|
|--7-7-7-7-7-7-7-7--9-9-9-9-9-9-9-9--7-7-7-7-7-7-7-7--9-9-9-9-9-9-9-9-|
|--0-0-0-0-0-0-0-0--7-7-7-7-7-7-7-7--5-5-5-5-5-5-5-5--7-7-7-7-7-7-7-7-|


intro
|--4---4---7---7---5---5-------------|
|----5---5---5---5---5---5--7--4--5--|
|------------------------------------|
|------------------------------------| X2
|------------------------------------|
|------------------------------------|

Intro (rhythm guitar)
|-----------------------------|
|-----------------------------|
|--9-9------------------------|
|--9-9--7-7--9-9-9-9-9-9-9-9--|  x2
|--7-7--7-7--9-9-9-9-9-9-9-9--|
|--7-7--5-5--7-7-7-7-7-7-7-7--|

verse
|-----|
|-----|
|-----|     and then there is some cracked out organ thing i couldnt
|--9--|     figure out how to play
|--9--|
|--7--|

                 Once again there is another part i couldnt figure out
|-----|          thats right between the verse and the PM thing                      
|-----|                                
|-----|                                
|--9--|                                
|--9--| x8                                
|--7--|
 P.M.                                         

Pre-chorus (lead)
|--4---4---7---7---5---5-------------|
|----5---5---5---5---5---5--7--4--5--|
|------------------------------------|
|------------------------------------| X4
|------------------------------------|
|------------------------------------|

Pre-chorus  (Rhythm guitar)
|-----------------------------|
|-----------------------------|
|--9-9------------------------|
|--9-9--7-7--9-9-9-9-9-9-9-9--|  x4
|--7-7--7-7--9-9-9-9-9-9-9-9--|
|--7-7--5-5--7-7-7-7-7-7-7-7--|


Chorus x2

|---------------------------------------------------------------------|
|---------------------------------------------------------------------|
|--9-9-9-9-9-9-9-9----------------------------------------------------|
|--9-9-9-9-9-9-9-9--9-9-9-9-9-9-9-9--7-7-7-7-7-7-7-7--9-9-9-9-9-9-9-9-|
|--7-7-7-7-7-7-7-7--9-9-9-9-9-9-9-9--7-7-7-7-7-7-7-7--9-9-9-9-9-9-9-9-|
|--0-0-0-0-0-0-0-0--7-7-7-7-7-7-7-7--5-5-5-5-5-5-5-5--7-7-7-7-7-7-7-7-|

solo
|----------------------------------------------------------|
|--7-7-77-5-7--7-4--4-4-7--4--5-5-----5-----4--------------|
|---------------------------------6-6----6-----6-4-4-4-4-0-|
|----------------------------------------------------------|
|----------------------------------------------------------|
|----------------------------------------------------------|

|-----------------------------------------------------|
|--7-7-77-5-7--7-4--4-4-7--4--5--------5-----4-4------| 
|-----------------------------------------------------| 
|-----------------------------------------------------                               |-----------------------------------------------------| 
|-----------------------------------------------------|
theres probabaly alot of bends that i forgot to put in 
solo

|-----|                                
|-----|                                
|-----|                                
|--9--|                                
|--9--| x8                                
|--7--|
 P.M.     

Pre-chorus
|--4---4---7---7---5---5-------------|
|----5---5---5---5---5---5--7--4--5--|
|------------------------------------|
|------------------------------------| X2
|------------------------------------|
|------------------------------------|

Rhythm guitar
|-----------------------------|
|-----------------------------|
|--9-9------------------------|
|--9-9--7-7--9-9-9-9-9-9-9-9--|  x2
|--7-7--7-7--9-9-9-9-9-9-9-9--|
|--7-7--5-5--7-7-7-7-7-7-7-7--|


Chorus x2 (hes also playin the intro w/ some type of foot-pedal during 
          the last chorus)
|---------------------------------------------------------------------|
|---------------------------------------------------------------------|
|--9-9-9-9-9-9-9-9----------------------------------------------------|
|--9-9-9-9-9-9-9-9--9-9-9-9-9-9-9-9--7-7-7-7-7-7-7-7--9-9-9-9-9-9-9-9-|
|--7-7-7-7-7-7-7-7--9-9-9-9-9-9-9-9--7-7-7-7-7-7-7-7--9-9-9-9-9-9-9-9-|
|--0-0-0-0-0-0-0-0--7-7-7-7-7-7-7-7--5-5-5-5-5-5-5-5--7-7-7-7-7-7-7-7-|


Outro
|--4---4---7---7---5---5-------------|
|----5---5---5---5---5---5--7--4--5--|
|------------------------------------|
|------------------------------------| X2
|------------------------------------|
|------------------------------------|

|-------|
|-------|
|-------|
|--9-9--| end on this after you play the outro
|--9-9--|
|--7-7--|

This should be fairly correct im not so sure on the solo. 
Listen to the lyrics their hallarious! The whole cd is good. This song 
is really easy. Any ?s comments,corrections, anything i forgot? 

                               Party All The Time-----Cody
            
Hard to play? Try these video lessons and learn fast. | Correct




comments powered by Disqus
↑ Back to top | Tablatures and chords are parodies/interpretations of the original songs. You may use it for private study, scholarship, research or language learning purposes only