» » »

Zebrahead, Playmate Of The Year Tabs (ver.2)

Artists:  A B C D E F G H I J K L M N O P Q R S T U V W X Y Z # 

Playmate Of The Year Tabs (ver.2)

Zebrahead Tabs
Rating:
0/5 (0 votes)
Playmate Of The Year lessons Tabs too difficult? Try these video lessons and learn fast
                This is the right version

Intro
E------------------------------------------------------------------------------
B------------------------------------------------------------------------------
G--9-9--------------------------9-9--------------------------------------------
D--9-9--7-7--9-9-9-9-9-9-9-9----9-9--7-7--9-9-9-9-9-9-9-9----------------------
A--7-7--7-7--9-9-9-9-9-9-9-9----7-7--7-7--9-9-9-9-9-9-9-9----------------------
E-------5-5--7-7-7-7-7-7-7-7---------5-5--7-7-7-7-7-7-7-7----------------------
                                                                       
Second guitar
E------------------------------------------------------------------------------
B--9---9---12---12---10---10---------------9---9---12---12---10---10------9----
G----9---9----9----9----9----9--11--9--8-----9---9----9----9----9----9-11---9--
D------------------------------------------------------------------------------
A------------------------------------------------------------------------------
E------------------------------------------------------------------------------

In the verse there's only the bass: E    A    B
         
Intro and the Chorus:
E------------------------------------------------------------------------------
B------------------------------------------------------------------------------
G--9-9-9-9-9-9-9-9-------------------------------------------------------------
D--9-9-9-9-9-9-9-9-9-9-9-9-9-9-9-9-7-7-7-7-7-7-7-7-9-9-9-9-9-9-9-9-------------
A--7-7-7-7-7-7-7-7-9-9-9-9-9-9-9-9-7-7-7-7-7-7-7-7-9-9-9-9-9-9-9-9-------------
E------------------7-7-7-7-7-7-7-7-5-5-5-5-5-5-5-5-7-7-7-7-7-7-7-7-------------
                                                                              

E------------------------------------------------------------------------------
B------------------------------------------------------------------------------
G--9-9-9-9-9-9-9-9-------------------------------------------------------------
D--9-9-9-9-9-9-9-9-9-9-9-9-9-9-9-9-7-7-7-7-7-7-7-7-9-9-9-9-9-9-9-9-------------
A--7-7-7-7-7-7-7-7-9-9-9-9-9-9-9-9-7-7-7-7-7-7-7-7-9-9-9-9-9-9-9-9-------------
E------------------7-7-7-7-7-7-7-7-5-5-5-5-5-5-5-5-7-7-7-7-7-7-7-7-------------
                                    
E------------------------------------------------------------------------------
B------------------------------------------------------------------------------
G------------------------------------------------------------------------------
D--7-7-7-7-7-7-7-7-9-9-9-9-9-9-9-9---------------------------------------------
A--7-7-7-7-7-7-7-7-9-9-9-9-9-9-9-9---------------------------------------------
E--5-5-5-5-5-5-5-5-7-7-7-7-7-7-7-7---------------------------------------------
                                                                     
                                                                             
Solo 2 when there's rap part
E------------------------------------------------------------------------------
B------------------------------------------------------------------------------
G------------------------------------------------------------------------------
D------------------------------------------------------------------------------
A---7-/9-6---2--4--6--7--0--2--------------------------------------------------
E------------------------------------------------------------------------------

Solo 3/Bridge
E------------------------------------------------------------------------------
B------------------------------------------------------------------------------
G-9-9/13-11-9-11-8-11-8-9-6-9-6-8-6-4--9-9/13-11-9-11-8-11-8-9-6-9-6-8-6-4-----
D------------------------------------------------------------------------------
A------------------------------------------------------------------------------
E------------------------------------------------------------------------------
            

comments powered by Disqus
↑ Back to top | Zebrahead Tabs for Playmate Of The Year. Lyrics for acoustic guitar and electric guitar. Tablatures and chords are parodies/interpretations of the original songs. You may use it for private study, scholarship, research or language learning purposes only