» » »

Zebrahead, Place In France Tabs (ver.1)

Artists:  A B C D E F G H I J K L M N O P Q R S T U V W X Y Z # 

Place In France Tabs (ver.1)

Zebrahead Tabs
 Rating:
4/5 (4 votes)
Place In France lessons Tabs too difficult? Try these video lessons and learn fast
                ~~~~~~~~~~~~~~~~~~~~~~~~~~~~~~~~~~~~~~~~~~~~~~~~~~~~~~~~~~
There's a place in France aka secret track 1

e------------------------------------------------------------
B------5-5-5-5-6-5---------------5---------------------------
G--5-7-------------7-4-5-7-7-7-7---7-5-----------------------
D------------------------------------------------------------
A------------------------------------------------------------
E------------------------------------------------------------

e------------------------------------------------------------
B------------------------------------------------------------
G------------------7-------------------------7---------------
D--5-7-8-7-5-5-7-8---7-8-5---5-7-8-7-5-5-7-8---7-8-5---------
A------------------------------------------------------------
E------------------------------------------------------------

e------------------------------------------------------------
B------------------------------------------------------------
G------------------7---------------------------7-------------
D--5-7-8-7-5-5-7-8---7-8-5---5-7-8-7-7-5-5-7-8---7-8-5-------
A------------------------------------------------------------
E------------------------------------------------------------

e------------------------------------------------------------
B------------------------------------------------------------
G------------------7-----------------------------------------
D--5-7-8-7-5-5-7-8---7-8-5-----------------------------------
A------------------------------------------------------------
E------------------------------------------------------------

~~~~~~~~~~~~~~~~~~~~~~~~~~~~~~~~~~~~~~~~~~~~~~~~~~~~~~~~~~~~~~~~~~~
            
Submit corrections

comments powered by Disqus
↑ Back to top | Zebrahead Tabs for Place In France. Lyrics for acoustic guitar and electric guitar. Tablatures and chords are parodies/interpretations of the original songs. You may use it for private study, scholarship, research or language learning purposes only