» » »

Over The Edge Tabs (ver.2)

Artists:  A B C D E F G H I J K L M N O P Q R S T U V W X Y Z # 

Over The Edge Tabs (ver.2)

Zebrahead
Rating:
0/5 (0 votes)

Hard to play? Try these video lessons and learn fast.
                Tuning: Drop-D

Intro x4 Guitar 1
E|-------10---------------10-----------
B|-7-8--------8-7-8-7-8---------8-7-8--
G|-----7----7-----------7----7---------
D|-------------------------------------
A|-------------------------------------
D|-------------------------------------

Intro x2 Guitar 2
E|--------------------
B|--------------------
G|--------------------
D|--00-00---77-7-555--
A|--00-00---77-7-555--
D|--00-00---77-7-555--

Verse x2 (palm mute)
E|-------------------------------------------------
B|-------------------------------------------------
G|-------------------------------------------------
D|--0000-5555---0000-5555---0000-5555---2222-5555--
A|--0000-5555---0000-5555---0000-5555---2222-5555--
D|--0000-5555---0000-5555---0000-5555---2222-5555--

Pre-Chorus x2
E|-----------------------
B|-----------------------
G|-----------------------
D|--0-00-2-22-5-55-7-77--
A|--0-00-2-22-5-55-7-77--
D|--0-00-2-22-5-55-7-77--

Chorus x2
E|-------------------------------------
B|-------------------------------------
G|-------------------------------------
D|--00000000---77777777---2--2---5--5--
A|--00000000---77777777---2--2---5--5--
D|--00000000---77777777---2--2---5--5--

Notes: Guitar 1 intro is very quick but I tabbed it exact. MFZB.
            
Hard to play? Try these video lessons and learn fast. | Correct




comments powered by Disqus
↑ Back to top | Tablatures and chords are parodies/interpretations of the original songs. You may use it for private study, scholarship, research or language learning purposes only