» » »

Now Or Never Tabs (ver.2)

Artists:  A B C D E F G H I J K L M N O P Q R S T U V W X Y Z # 

Now Or Never Tabs (ver.2)

Zebrahead
Rating:
0/5 (0 votes)

Hard to play? Try these video lessons and learn fast.
                Intro

Gtr. 1:
E|--------------------------------------------------------------------------|
B|----------------------------------------------------------------15-13-----|
G|--12-12-11--12-12-11--12-12-15-14-11--12-12-11--12-12-11--12-12-------12--|
D|--------------------------------------------------------------------------|
A|--------------------------------------------------------------------------|
E|--------------------------------------------------------------------------|

E|--15-15-13-------------------------------------------------------|
B|-------------15-15b-13-------------------------------------------|
G|-------------------------14--12-12-11--12-12-11--12-12-11--12----|
D|-----------------------------------------------------------------|
A|-----------------------------------------------------------------|
E|-----------------------------------------------------------------|

Gtr. 2:
E|------------------------------------------|
B|------------------------------------------|
G|------------88888888----------------------|
D|--55555555--88888888--88888888--33333333--|
A|--55555555--66666666--88888888--33333333--|
E|--33333333------------66666666--11111111--|

Verse
E|--15-15-15-14h15--|
B|------------------|
G|------------------|
D|------------------|
A|------------------|
E|------------------|

Pre-chorus (fill)
E|--------------|
B|--------------|
G|--------------|
D|--/55--44--5--|
A|--/55--44--5--|
E|--/33--22--3--|
pm-> **  **  *

Chorus
E|-------------------------------------------|
B|-------------------------------------------|
G|------------88888888-----------------------|
D|--55555555--88888888--88888888---33333333--|
A|--55555555--66666666--88888888---33333333--|
E|--33333333------------66666666---11111111--|

Solo after Chorus
E|-------------------------------------15-15-13---------------------|
B|-----------------------------------------------15-15b-13----------|
G|-12-12-11--12-12-11--12-12-15-14-11-----------------------14------|
D|------------------------------------------------------------------|
A|------------------------------------------------------------------|
E|------------------------------------------------------------------|

E|--------------------------------------|
B|--------------------------------------|
G|-12-12-11--12-12-11--12-12-11--12-----|
D|--------------------------------------|
A|--------------------------------------|
E|--------------------------------------|

Verse
Pre-chorus (fill)
Chorus

Bridge
E|--------------------------------------|
B|--------------------------------------|
G|--------------------------------------|
D|--5-5--7-7--3-3--3--3-----------------|
A|--5-5--7-7--3-3--3--3------3-----5----|
E|--3-3--5-5--1-1--1--1---1-----3-------|

Pre-chorus (fill)
Chorus
Chorus with guitar 1 Intro over
Bridge as outro
            
Hard to play? Try these video lessons and learn fast. | Correct




comments powered by Disqus
↑ Back to top | Tablatures and chords are parodies/interpretations of the original songs. You may use it for private study, scholarship, research or language learning purposes only