>
 >
Move On

Move On Guitar Tabs

Zebrahead - Move On chords, tabs, tablatures, lyrics

Guitar lessons | Add/correct | Request | Top 50 tabs Artists:  A B C D E F G H I J K L M N O P Q R S T U V W X Y Z 0-9

Move On Guitar Tabs – Zebrahead

CD, Sheet music, Poster

Do you like Move On? Share with your friends now
Bass TabsTabs


Need help, have comments, praise, or criticism
I will transcribe the horn and keyboard part for the Guitar soon!

Intro and Chorus Rhythm (guitar 2) 0:00, 0:55, 1:50, 2:33, 3:17
e|-3-3-3-3-3-3-3-3-3-3-3-3-8--8--8--8--8--8--8--8--8--8--8--8------------------|
B|-3-3-3-3-3-3-3-3-3-3-3-3-8--8--8--8--8--8--8--8--8--8--8--8------------------|
G|-4-4-4-4-4-4-4-4-4-4-4-4-9--9--9--9--9--9--9--9--9--9--9--9------------------|
D|-5-5-5-5-5-5-5-5-5-5-5-5-10-10-10-10-10-10-10-10-10-10-10-10-----------------|
A|-----------------------------------------------------------------------------|
E|-----------------------------------------------------------------------------|

e|-3-3-3-3-3-3-3-3-3-3-3-3-10-10-10-10-10-10-10-10-10-10-10-10-----------------|
B|-3-3-3-3-3-3-3-3-3-3-3-3-10-10-10-10-10-10-10-10-10-10-10-10-----------------|
G|-4-4-4-4-4-4-4-4-4-4-4-4-11-11-11-11-11-11-11-11-11-11-11-11-----------------|
D|-5-5-5-5-5-5-5-5-5-5-5-5-12-12-12-12-12-12-12-12-12-12-12-12-----------------|
A|-----------------------------------------------------------------------------|
E|-----------------------------------------------------------------------------|

Lead for Intro (guitar 1) 00:11
x = mute [ ] = natural harmonic / = Slide Up 
e|-----------------------------------------------------------------------------|
B|-----------------------------------------------------------------------------|
G|-----------------------------------------------------------------------------|
D|---12-12-12-12-14-12-12-9-12-10-9-10-9-10-10-9-10-12-------------------------|
A|--x--------------------------------------------------------------------------|
E|-x-(rake up)-----------------------------------------------------------------|

e|-----------------------------------------------------------------------------|
B|----------15(bend)-13-12-13-15-13-12-----------------------------------------|
G|-----[12]-----------------------------14-16/---------------------------------|
D|-[12]------------------------------------------------------------------------|
A|-----------------------------------------------------------------------------|
E|-----------------------------------------------------------------------------|

Lead for Intro Part 2 and lead In between Chorus and Verse Riff 1(guitar 1)
00:22, 1:16, 2:44, 3:27
e|-----------------------------------------------------------------------------|
B|-----------------------------------------------------------------------------|
G|-----------------------------------------------------------------------------|
D|---12-12-12-12-14-12-12-9-12-10-9-10-9-10-10-9-10-12-------------------------|
A|--x--------------------------------------------------------------------------|
E|-x--(rake up second time only)-----------------------------------------------|

e|-19-19-19-17-15-17-15--------------------------------------------------------|
B|----------------------19--15-------------------------------------------------|
G|-----------------------------16----------------------------------------------|
D|-----------------------------------------------------------------------------|
A|-----------------------------------------------------------------------------|
E|-----------------------------------------------------------------------------|

Verse 00:33, 1:27, 2:55 Guitar 1 w/wha adlib on the verse cords
Guitar 2
e|-3--3--3--3--8--8--8--8--3--3--3--3--8--8--8--8--3--3--3--3--8--8--8--8------|
B|-3--3--3--3--8--8--8--8--3--3--3--3--8--8--8--8--3--3--3--3--8--8--8--8------|
G|-4--4--4--4--9--9--9--9--4--4--4--4--9--9--9--9--4--4--4--4--9--9--9--9------|
D|-5--5--5--5--10-10-10-10-5--5--5--5-10-10-10-10--5--5--5--5-10-10-10-10------|
A|-----------------------------------------------------------------------------|
E|-----------------------------------------------------------------------------|
Verse continued
e|-(4-4-4-4)-2-2-2-2-----------------------------------------------------------|
B|--5-5-5-5--2-2-2-2-----------------------------------------------------------|
G|--4-4-4-4--3-3-3-3-----------------------------------------------------------|
D|--6-6-6-6--4-4-4-4-----------------------------------------------------------|
A|-(7-7-7-7)-------------------------------------------------------------------|
E|-----------------------------------------------------------------------------|

Bridge and Outro 2:10, 3:38 Can be played
as Root Notes only if so ignore fret #'s in ( )
e|-----------------------------------------------------------------------------|
B|-----------------------------------------------------------------------------|
G|-----------------------------------------------------------------------------|
D|----------(5-4-2-2-2-2-5-4)--------------------------------------------------|
A|(5-5-5-5)--3-2-0-0-0-0-3-2---------------------------------------------------|
E|-3-3-3-3---------------------------------------------------------------------|





Comments


Popular Zebrahead tabs & chords
Back To Normal 1 Bass Tabs
Fall Apart Bass Tabs
Back To Normal 1 Tabs
Check Tabs
Check 1 Tabs
Hmp 2 Tabs
I Hate Christmas Tabs
Oc Life Tabs
Playmate Of The Year 2 Tabs
Where The Naked Girlies Dance Tabs


Song lyrics



↑ Back to top | Tablatures and chords are parodies/interpretations of the original songs. You may use it for private study, scholarship, research or language learning purposes only
© 2014 AZChords.com Contact us | Privacy policy | DMCA | Add/correct tabs | Request tabs | Top 50 tabs