>
 >
Let It Ride

Let It Ride Guitar Tabs

Zebrahead - Let It Ride chords, tabs, tablatures, lyrics

Guitar lessons | Add/correct | Request | Top 50 tabs Artists:  A B C D E F G H I J K L M N O P Q R S T U V W X Y Z 0-9

Let It Ride Guitar Tabs – Zebrahead

CD, Sheet music, Poster

Do you like Let It Ride? Share with your friends now
Bass TabsTabsTabs v2
-------------------------------------------------------------------------------
-------------------------------------------------------------------------------

Tuning: Standard

Intro - Guitar 1
e|---------------------------------------------------------------------|
B|---------------------------------------------------------------------|
G|-----------------------------------7777777777777777------------------|
D|-7777777777777777-4444444444444444-7777777777777777-2222222222222222-|
A|-7777777777777777-4444444444444444-5555555555555555-2222222222222222-|
E|-5555555555555555-2222222222222222------------------0000000000000000-|

Intro - Guitar 2
e|------------------------|------------------------------------------|
B|------------------------|------------------------------------------|
G|-----------*------------|--------------------------------*---------|
D|-----6-6-7-7-7-6h7p6-x2-|-----6-6-777-7-6h7h6----6-7-7-9-9-9-6h7h6-|
A|-7-9--------------------|-7-9------------------9-------------------|
E|------------------------|------------------------------------------|

Note: * = Stacatto note (Star-catto mwahaha)



Verse - Guitar 1 ("Let it ride...")      
e|----------------------------|
B|----------------------------|
G|-------------7-7------------|
D|-7-7---4-4---7-7---2-2---x2-|
A|-7-7---4-4---5-5---2-2------|
E|-5-5---2-2---------0-0------|

Verse - Guitar 2 ("Let it ride...")
e|-----------------------------------------------|
B|-----------------------------------------------|
G|-------------7-7---------------------7-7-------|
D|-7\----4-4---7-7---2-2---7-7---4-4---7-7---2-2-|
A|-------4-4---5-5---2-2---7-7---4-4---5-5---2-2-|
E|-------2-2---------0-0---5-5---2-2---------0-0-|

Note: Guitar two same as guitar one except the sliding note in place of the 
A5 power chord that guitar one plays.



Pre-Chorus - Both Guitars ("Four shots of Jack...")
e|------------------------------------------|
B|------------------------*-*---------------|
G|------*-*------*-*-7-7--7-7---------------|
D|-7-7--7-7-4-4--4-4-7-7--7-7-2-22-2-22-2-2-|
A|-7-7--7-7-4-4--4-4-5-5--5-5-2-22-2-22-2-2-|
E|-5-5--5-5-2-2--2-2----------0-00-0-00-0-0-|


Chorus - Both Guitars ("Tomorrow brings another day...")
e|---------------------------------------------------------------------|
B|---------------------------------------------------------------------|
G|-----------------------------------7777777777777777-9999999999999999-|
D|-7777777777777777-4444444444444444-7777777777777777-9999999999999999-|
A|-7777777777777777-4444444444444444-5555555555555555-7777777777777777-|
E|-5555555555555555-2222222222222222-----------------------------------|


Repeat Intro (x1) 

Repeat Verse (x1) ("Let it ride...") 


Pre Chorus - Both Guitars ("I spun so fast...")
e|--------------------------------------------------------------------|
B|-------------------------------------------------*-*----------------|
G|-------------7-7-------------*-*-------*-*--7-7--7-7----------------|
D|-7-7---4-4---7-7---2-2--7-7--7-7--4-4--4-4--7-7--7-7--2-22-2-22-2-2-|
A|-7-7---4-4---5-5---2-2--7-7--7-7--4-4--4-4--5-5--5-5--2-22-2-22-2-2-|
E|-5-5---2-2---------0-0--5-5--5-5--2-2--2-2------------0-00-0-00-0-0-|


Repeat Chorus (x2)  ("Tomorrow brings another day...")


Bridge - Both Guitars ("And I stopped keeping score...")
e|----------------------------------------------------|
B|----------------------------------------------------|
G|-7777777777777777-6666666666666666-7777777777777777-| x2 (See below for
D|-7777777777777777-7777777777777777-7777777777777777-|       endings)
A|-5555555555555555-7777777777777777-5555555555555555-|
E|------------------5555555555555555------------------|

e|--------(1st)------|---------------(2nd)--------------|
B|-------------------|----------------------------------|
G|-------------------|-99999999999999999999999999999999-|
D|-44444444-22222222-|-99999999999999999999999999999999-|
A|-44444444-22222222-|-77777777777777777777777777777777-|
E|-22222222-00000000-|----------------------------------|


Verse 3 - No Guitars ("Let it ride...") 

Repeat Chorus (x2)  ("Tomorrow brings another day...")

Repeat Intro (x1) ("Not even if you want it to")


Ending - Guitar 1  ("Not even if you want it to")
e|------------------------------------------------------------------------|
B|------------------------------------------------------------------------|
G|-----------------------------------7777777777777777---------------------|
D|-7777777777777777-4444444444444444-7777777777777777-2222222222222222-x2-| 
A|-7777777777777777-4444444444444444-5555555555555555-2222222222222222----|
E|-5555555555555555-2222222222222222------------------0000000000000000----|

Ending - Guitar 2  ("Not even if you want it to")
e|------------------------|---------------------|---------------------|
B|------------------------|---------------------|---------------------|
G|-----------*------------|---------------------|---------------------|
D|-----6-6-7-7-7-6h7p6-x2-|-----6-6-777-7-6h7h6-|-9-7-6-(x4)--9-7-6-7-|
A|-7-9--------------------|-7-9-----------------|---------------------|
E|------------------------|---------------------|---------------------|

End On
e|---------------|---------------|
B|---------------|---------------|
G|---------------|---------------|
D|-7-----Guitar 1|-------Guitar 2|
A|-7-------------|-7-------------|
E|-5-------------|---------------|



Feel free to email/comment if any questions.


| /  slide up
| \  slide down
| h  hammer-on
| p  pull-off
| ~  vibrato
| +  harmonic
| x  Mute note
===============================================================================





Comments


Popular Zebrahead tabs & chords
Hmp Bass Tabs
Jag Off 3 Bass Tabs
Wasted Bass Tabs
Blur Tabs
Get Nice 1 Tabs
Hmp Tabs
I'm Money Tabs
Runaway 1 Tabs
Type Aintro Tabs
Into You Ukulele


Song lyrics



↑ Back to top | Tablatures and chords are parodies/interpretations of the original songs. You may use it for private study, scholarship, research or language learning purposes only
© 2014 AZChords.com Contact us | Privacy policy | DMCA | Add/correct tabs | Request tabs | Top 50 tabs