» » »

Zebrahead, Jag Off Tabs (ver.1)

Artists:  A B C D E F G H I J K L M N O P Q R S T U V W X Y Z # 

Jag Off Tabs (ver.1)

Zebrahead Tabs
 Rating:
4/5 (4 votes)
Jag Off lessons Tabs too difficult? Try these video lessons and learn fast
                	Jag Off- Zebrahead


I didn't write out the order, so just mess around with these parts and you should get it. The solo is coming soon.

e|-9--9-xxx-12-12-12-12-12-12---|-12-13-12-11--------------------------|
B|-9--9-----12-12-12-12-12-12---|-12-13-12-11--------------------------|
G|-10-10------------------------|--------------------------------------|
D|-11-11------------------------|--------------------------------------|
A|------------------------------|--------------------------------------|
E|------------------------------|--------------------------------------|

e|-2-2-2-2-2-2-2-2-1-0-0-0-0-0-0-1------------------------------------|
B|-2-2-2-2-2-2-2-2-1-0-0-0-0-0-0-1------------------------------------|
G|-3-3-3-3-3-3-3-3-2-1-1-1-1-1-1-2------------------------------------|
D|-4-4-4-4-4-4-4-4-3-2-2-2-2-2-2-3------------------------------------|
A|--------------------------------------------------------------------|
E|--------------------------------------------------------------------|

e|--------------|------------------------------------------------------|
B|--------------|------------------------------------------------------|
G|--------------|------------------------------------------------------|
D|-66666666666--|------------------------------------------------------|
A|-44444444444--|-4-4-4-4-4-4-4-3-2-2-2-2-2-2-2-2-2-3------------------|
E|--------------|-2-2-2-2-2-2-2-1-0-0-0-0-0-0-0-0-0-1------------------|
            
Submit corrections

comments powered by Disqus
↑ Back to top | Zebrahead Tabs for Jag Off. Lyrics for acoustic guitar and electric guitar. Tablatures and chords are parodies/interpretations of the original songs. You may use it for private study, scholarship, research or language learning purposes only