» » »

Into You Tabs (ver.1)

Artists:  A B C D E F G H I J K L M N O P Q R S T U V W X Y Z # 

Into You Tabs (ver.1)

Zebrahead
Rating:
0/5 (0 votes)

Hard to play? Try these video lessons and learn fast.
                
INTRO Guitar 1
e|--------------------------------------------------------------------|
B|--------------------------------------------------------------------|
G|---------------4-4-4-4-4-4-4-4-----------------2-2-2-2-2-2-2-2------|
D|-2-2-2-2-2-2-2-4-4-4-4-4-4-4-4-4-4-4-4-4-4-4-4-2-2-2-2-2-2-2-2------| x2
A|-2-2-2-2-2-2-2-2-2-2-2-2-2-2-2-4-4-4-4-4-4-4-4-0-0-0-0-0-0-0-0------|
E|-0-0-0-0-0-0-0-----------------2-2-2-2-2-2-2-2----------------------|
    pm . . . . .     . . . . . .     . . . . . .     . . . . . . 
  
INTRO Guitar 2
e|-0-------4-------7-------4------------------------------------------|
B|---5-4-5---5-4-5---5-4-5---5-4-5------------------------------------|
G|--------------------------------------------------------------------|
D|--------------------------------------------------------------------| x2
A|--------------------------------------------------------------------|
E|--------------------------------------------------------------------|

VERSE both guitars
e|--------------------------------------------------------------------|
B|--------------------------------------------------------------------|
G|--------7-7-7-6-6-----------------------------7-6-------------------|
D|-2-2----7-5-5-6-6—x2--2-2-2-2-2-2-2-2-2-2-2-2-7-6-x2--2-2-2-2-2-2---|
A|-2-2----5-5-5-4-4-----2-2-2-2-2-2-2-2-2-2-2-2-5-4-----2-2-2-2-2-2---|
E|-0-0------------------0-0-0-0-0-0-0-0-0-0-0-0---------0-0-0-0-0-0---|
                            . .     . .     . .         . . . . . . 
CHORUS Part 1
e|--------------------------------------------------------------------|
B|--------------------------------------------------------------------|
G|---------------4-4-4-4-4-4-4-4-----------------2-2-2-2-2-2-2-2------|
D|-2-2-2-2-2-2-2-4-4-4-4-4-4-4-4-4-4-4-4-4-4-4-4-2-2-2-2-2-2-2-2------| x2
A|-2-2-2-2-2-2-2-2-2-2-2-2-2-2-2-4-4-4-4-4-4-4-4-0-0-0-0-0-0-0-0------|
E|-0-0-0-0-0-0-0-----------------2-2-2-2-2-2-2-2----------------------|

CHORUS Part 2 GUITAR 1
e|--------------------------------------------------------------------|
B|--------------------------------------------------------------------|
G|-9-9-9-9-9-9-9-9-9-9-9-9-9-9-9-9-6-6-6-6-6-6-6-6-4-4-4-4-4-4-4-4----|
D|-9-9-9-9-9-9-9-9-9-9-9-9-9-9-9-9-6-6-6-6-6-6-6-6-4-4-4-4-4-4-4-4----| x2
A|-7-7-7-7-7-7-7-7-6-6-6-6-6-6-6-6-4-4-4-4-4-4-4-4-2-2-2-2-2-2-2-2----|
E|--------------------------------------------------------------------|

CHORUS Part 2 GUITAR 2
e|--------------------------------------------------------------------|
B|--------------------------------------------------------------------|
G|-9-9-9-9-9-9-9-9-9-9-9-9-9-9-9-9-13-13-13-13-14-13-9----------------|
D|--------------------------------------------------------------------|
A|-7-7-7-7-7-7-7-7-6-6-6-6-6-6-6-6-11-11-11-11-12-11-7----------------|
E|--------------------------------------------------------------------|

e|--------------------------------------------------------------------|
B|--------------------------------------------------------------------|
G|-9-9-9-9-9-9-9-9-9-9-9-9-9-9-9-9-13-13-13-13-14-13-16-13------------|
D|--------------------------------------------------------------------|
A|-7-7-7-7-7-7-7-7-6-6-6-6-6-6-6-6-11-11-11-11-12-11-14-11------------|
E|--------------------------------------------------------------------|


VERSE 2 same as VERSE 1

CHORUSES same as before

PART BEFORE BRIDGE
e|--------------------------------------------------------------------|
B|--------------------------------------------------------------------|
G|--------------------------------------------------------------------|
D|-2-2-2-2-2-2-2-2-2-2-2-2-2------------------------------------------|
A|-2-2-2-2-2-2-2-2-2-2-2-2-2------------------------------------------|
E|-0-0-0-0-0-0-0-0-0-0-0-0-0------------------------------------------|
   . . . . . . . . . .  
BRIDGE
e|--------------------------------------------------------------------|
B|--------------------------------------------------------------------|
G|-6-6-6-6-6-6-6-6-9-9-9-9-9-9-9-9-6-6-6-6-6-6-6-6-4-4-4-4-4-4-4-4----|
D|-6-6-6-6-6-6-6-6-9-9-9-9-9-9-9-9-6-6-6-6-6-6-6-6-4-4-4-4-4-4-4-4----|
A|-4-4-4-4-4-4-4-4-7-7-7-7-7-7-7-7-4-4-4-4-4-4-4-4-2-2-2-2-2-2-2-2----|
E|--------------------------------------------------------------------|

e|--------------------------------------------------------------------|
B|--------------------------------------------------------------------|
G|-6-6-6-6-6-6-6-6-9-9-9-9-9-9-9-9------------------------------------|
D|-6-6-6-6-6-6-6-6-9-9-9-9-9-9-9-9-7-7-7-7-7-7-7-7-9-9-9-9-9-9-9-9-2~-|
A|-4-4-4-4-4-4-4-4-7-7-7-7-7-7-7-7-7-7-7-7-7-7-7-7-9-9-9-9-9-9-9-9-2~-|
E|---------------------------------5-5-5-5-5-5-5-5-7-7-7-7-7-7-7-7-0~-|

SOLO I don’t know

CHORUS 1

CHORUS 2

INTRO

PLEASE RATE & COMMENT ON TAB
            
Hard to play? Try these video lessons and learn fast. | Correct




comments powered by Disqus
↑ Back to top | Tablatures and chords are parodies/interpretations of the original songs. You may use it for private study, scholarship, research or language learning purposes only