» » »

In My Room Readable Tab Bass tabs (ver.1)

Artists:  A B C D E F G H I J K L M N O P Q R S T U V W X Y Z # 

In My Room Readable Tab Bass tabs (ver.1)

Zebrahead
Rating:
0/5 (0 votes)

Hard to play? Try these video lessons and learn fast.
                zebrahead - in my room

Intro / Verse / Chorus 
G-----------------------------------------
D-----------------------------------------
A--------------------------------22222----
E-2222-0000-2222-0000-2222-0000--------000 

Pre-Chorus 
G----------------------------------------
D----------------------------------------
A---22222222---44444444---2-444444444----
E-2----------2----------2----------------

Bridge Part A 
G---------1-2-1----
D-------2-------2--
A----2-2----------2 
E-2-2--------------

Bridge Part B / very end 
G----------------------------------------------------------------------------
D----------------------------00000000---------------------------0000---------
A----------00000000-22222222-------------------00000000-2222222-----4-4-4----
E-22222222----------------------------22222222------------------------------2
            
Hard to play? Try these video lessons and learn fast. | Correct




comments powered by Disqus
↑ Back to top | Tablatures and chords are parodies/interpretations of the original songs. You may use it for private study, scholarship, research or language learning purposes only