» » »

Zebrahead, In My Room Tabs (ver.1)

Artists:  A B C D E F G H I J K L M N O P Q R S T U V W X Y Z # 

In My Room Tabs (ver.1)

Zebrahead Tabs
Rating:
0/5 (0 votes)
In My Room lessons Tabs too difficult? Try these video lessons and learn fast
                
Main Riff:
    F#       E     F#       E     F#       E   B
e|--------------------------------------------------------------------|
b|-----------9-9------------9-9------------9-9------------------------|
g|-----------9-9------------9-9------------9-9------------------------|
d|--4--------7-7---4--------7-7---4--------7-7--9-9-9-9-9-9-9---------|
a|--4--------------4--------------4-------------9-9-9-9-9-9-9---------|
E|--2--------------2--------------2-------------7-7-7-7-7-7-7---------|

Verse:
Let a F# ring
then
                                x3 then x1
|----------------------------------|-----------------|
|----------------------------------|-----------------|
|----------------------------------|-4-4-4-4-4-4-4-4-|
|--4-4-4-4-4-4-4-4-2-2-2-2-2-2-2-2-|-4-4-4-4-4-4-4-4-|
|--4-4-4-4-4-4-4-4-2-2-2-2-2-2-2-2-|-2-2-2-2-2-2-2-2-|
|--2-2-2-2-2-2-2-2-0-0-0-0-0-0-0-0-|-----------------|

Sha pow part
|---------------------|
|---------------------|
|----4-----6-----4--6-|
|-4--4--4--6--4--4--6-|
|-4--2--4--4--4--2--4-|
|-2-----2-----2-------|

Canibal Coarpse Part
|-------------------------------------------------|
|-------------------------------------------------|
|-----------------4-4-4-4-----------------6-6-6-6-|
|-4-4-4-4-2-2-2-2-4-4-4-4-6-6-6-6-4-4-4-4-6-6-6-6-|
|-4-4-4-4-2-2-2-2-2-2-2-2-6-6-6-6-4-4-4-4-4-4-4-4-|
|-2-2-2-2-0-0-0-0---------4-4-4-4-2-2-2-2---------|

The lead parts are taken from the F# and E minor penatonic scales

|--1----4-|
|--1----4-|
|--1--3---|
|--1--3---|
|--1--3---|
|--1*---4-|* root note

the * should be played at the 12th fret for E and the 14th for F#

the guitar is blazing but i can tell that those are the scales being used
i'm sure u can come up with a great solo there anyway.
            

comments powered by Disqus
↑ Back to top | Zebrahead Tabs for In My Room. Lyrics for acoustic guitar and electric guitar. Tablatures and chords are parodies/interpretations of the original songs. You may use it for private study, scholarship, research or language learning purposes only