» » »

Zebrahead, I'm Money Tabs (ver.1)

Artists:  A B C D E F G H I J K L M N O P Q R S T U V W X Y Z # 

I'm Money Tabs (ver.1)

Zebrahead Tabs
 Rating:
4/5 (4 votes)
I'm Money lessons Tabs too difficult? Try these video lessons and learn fast
1
                Tuning - EADGBE


Bass Intro:
G-----------------|-------------------|
D-----------6-7-9-|---8-9-11-11-9-8---|
A---6-7-9-7-------|-9---------------11|
E-7---------------|-------------------|

Guitar Intro:
   Db
E|--------|
B|--------|
G|-6-6-6--|
D|-6-6-6--|
A|-4-4-4--|
E|--------|

Verse:
    B      B        B      B        E (Last Time Verse is Played)
E|--7-7-7--7-7-7-7--7-7-7--7-7-7-7-(12--12--12--12)-|
B|--7-7-7--7-7-7-7--7-7-7--7-7-7-7-(12--12--12--12)-|
G|--8-8-8--8-8-8-8--8-8-8--8-8-8-8-(13--13--13--13)-|
D|--9-9-9--9-9-9-9--9-9-9--9-9-9-9-(14--14--14--14)-|
A|--------------------------------------------------|
E|--------------------------------------------------|

Chorus:
     B        B        B    E        E        E
E|-------------------------------------------------|
B|-------------------------------------------------|
G|---4-4-4-4--4-4-4-4--4-4--9-9-9-9--9-9-9-9--9-9--|
D|---4-4-4-4--4-4-4-4--4-4--9-9-9-9--9-9-9-9--9-9--|
A|---2-2-2-2--2-2-2-2--2-2--7-7-7-7--7-7-7-7--7-7--|
E|-------------------------------------------------|

    Gb               E
E|---------------------|
B|---------------------|
G|--11-11-11-11-11---9-|
D|--11-11-11-11-11---9-|
A|--9--9--9--9--9----7-|
E|---------------------|

Solo: (?? Not sure yet, still new to learning by ear)
"...Everybody look at me!!..."
    B        E        B         G
E|------------------------------------------|
B|------------------------------------------|
G|-----------9-9-9-9------------11-11-11-11-|
D|--9-9-9-9--9-9-9-9--9-9-9-9---11-11-11-11-|
A|--9-9-9-9--7-7-7-7--9-9-9-9---9--9--9--9--|
E|--7-7-7-7-----------7-7-7-7---------------|
            
Submit corrections

comments powered by Disqus
↑ Back to top | Zebrahead Tabs for I'm Money. Lyrics for acoustic guitar and electric guitar. 1 Tablatures and chords are parodies/interpretations of the original songs. You may use it for private study, scholarship, research or language learning purposes only