» » »

Hmp Tabs (ver.1)

Artists:  A B C D E F G H I J K L M N O P Q R S T U V W X Y Z # 

Hmp Tabs (ver.1)

Zebrahead
Rating:
0/5 (0 votes)

Tabs too difficult? Try these video lessons and learn fast.
                Intro
E:----------------------------|
B:----------------------------|
G:----------------------------|
D:----------------------------| Let Ring
A:--9-9-9-9-9-9-9-------------|
E:--7-7-7-7-7-7-7-------------|

E:--------------------------------------------------------| 
B:--------------------------------------------------------|
G:--------------------------------------------------------|
D:--------------------------------------------------------|  X 4
A:-9-9-9-9-9-9-9-8-8-8-8-8-8-8-5-5-5-5-5-5-5-6-6-6-6-6-6-6|
E:-7-7-7-7-7-7-7-6-6-6-6-6-6-6-7-7-7-7-7-7-7-4-4-4-4-4-4-4| 
 PM-------------------------------------------------------

E:----------------------------|
B:----------------------------|
G:----------------------------|
D:----------------------------|  
A:-6-9-3-6-7-1----------------|
E:-4-7-1-4-9-1----------------|

E:----------------------------------------------------------------------------|
B:----------------------------------------------------------------------------|
G:----------------------------------------------------------------------------|
D:----------------------------------------------------------------------------|  
A:-5-5-5-5-5-5-5-5-5-5-9-9-9-9-9-9-9-9-9-4-4-4-4-4-4-4-4-4-111111111111111111-|
E:-3-3-3-3-3-3-3-3-3-3-7-7-7-7-7-7-7-7-7-2-2-2-2-2-2-2-2-2-9-9-9-9-9-9-9-9-9--|

E:----------------------------|
B:----------------------------|
G:----------------------------|
D:----------------------------|  
A:-6-9-3-6-7-1----------------|
E:-4-7-1-4-9-1----------------|

E:-----------------------------------------------|
B:-----------------------------------------------| 
G:-----------------------------------------------|
D:-----------------------------------------------| X4 
A:-6-6-5-6-9--3-4-3-4-11--6-6-5-6-13--3-4-3-4-9--|
E:-4-4-3-4-7--1-2-1-2-9---4-4-3-4-11--1-2-1-2-7--|
 PM-------  PM -------  PM -------  PM -------
            
Tabs too difficult? Try these video lessons and learn fast.




comments powered by Disqus
↑ Back to top | Tablatures and chords are parodies/interpretations of the original songs. You may use it for private study, scholarship, research or language learning purposes only