» » »

Hell Yeah Tabs (ver.2)

Artists:  A B C D E F G H I J K L M N O P Q R S T U V W X Y Z # 

Hell Yeah Tabs (ver.2)

Zebrahead
Rating:
0/5 (0 votes)

Tabs too difficult? Try these video lessons and learn fast.
                			  Hell Yeah! solo - Zebrahead

Tuning: half step down
If you want to play this solo in stadard tuning just play every note one fret lower, but 
have tabbed it half a step down to fit in with the rest of the song.


eb|--7-6h7--------------------------------------------|
Bb|---------7h8---------------------------------------|
Gb|--------------8h9----------------------------------|
Db|-------------------9h10----------------------------|
Ab|-------------------------9h10-9-7--5~--------------|
Eb|---------------------------------------------------|

eb|--7-6h7--------------------------------------------|
Bb|---------7h8---------------------------------------|
Gb|--------------8h9----------------------------------|
Db|-------------------9h10----------------------------|
Ab|-------------------------9h10-9-10/12~-------------|
Eb|---------------------------------------------------|

eb|--7-6h7--------------------------------------------|
Bb|---------7h8---------------------------------------|
Gb|--------------8h9----------------------------------|
Db|-------------------9h10----------------------------|
Ab|-------------------------9h10-9-7--5~--------------|
Eb|---------------------------------------------------|

eb|---------------------------------------------------|
Bb|---------------------------------------------------|
Gb|---------------------------------------------------|
Db|------------------------------10-------------------|
Ab|--5/7~-9-10-7~-9-10-7~-9-10------------------------|
Eb|---------------------------------------------------|

eb|---------------------------------------------------|
Bb|---------------------------------------------------|
Gb|---------------------------------------------------|
Db|---9~9~-7~7~---------------------------------------|
Ab|-------------10~10~-9~9~-7~------------------------|
Eb|---------------------------------------------------|

eb|---------------------------------------------------|
Bb|---------------------------------------------------|
Gb|---5/7~--------------------------------------------|
Db|--------10~10~-9~9~-7/9~---------------------------|
Ab|---------------------------------------------------|
Eb|---------------------------------------------------|

eb|---------------------------------------------------|
Bb|---------------------------------------------------|
Gb|-7h9p7\5h7p5\4h5p4--h4-----------------------------|
Db|------------------h7--h7p5h7p5p4h5p4--h4-----------|
Ab|------------------------------------h7--h7p5h7p5p3-|
Eb|---------------------------------------------------|

eb|-------------------------------------7h8h10-12-----|
Bb|-------------------------------7h8h10--------------|
Gb|----------------4h5h7-----4h5h7--------------------|
Db|-----------4h5h7-----4h5h7-------------------------|
Ab|------3h5h7----------------------------------------|
Eb|-3h5h7---------------------------------------------|


| /  slide up
| \  slide down
| h  hammer-on
| p  pull-off
| ~  vibrato
| +  harmonic
| x  Mute note
            
Tabs too difficult? Try these video lessons and learn fast.




comments powered by Disqus
↑ Back to top | Tablatures and chords are parodies/interpretations of the original songs. You may use it for private study, scholarship, research or language learning purposes only