» » »

Hell That Is My Life Bass tabs (ver.3)

Artists:  A B C D E F G H I J K L M N O P Q R S T U V W X Y Z # 

Hell That Is My Life Bass tabs (ver.3)

Zebrahead
Rating:
0/5 (0 votes)

Tabs too difficult? Try these video lessons and learn fast.
                A catchy song. Decent bass. Easy enough.

Intro (0:11) x1
G|------------------------|
D|-22---222---222---222---|
A|---2-----2-----2-----2--|
E|------------------------|

G|------------------------|
D|------------------------|
A|-22---222---222---222---|
E|---2-----2-----2-----2--|

G|------------------------|
D|------------------------|
A|-55---555---555---555---|
E|---5-----5-----5-----5--|

G|------------------------|
D|------------------------|
A|------------------------|
E|-550--5550--5550--5550--|

Verse/Pre-Chorus (0:22) x3
G|-----------------------|
D|-2-2--222--222--222-4--|
A|-----------------------|
E|-----------------------|

G|-----------------------|
D|-----------------------|
A|-2-2--222--222--222-4--|
E|-----------------------|

G|-----------------------|
D|-----------------------|
A|-5-5--555--555--555-7--|
E|-----------------------|

G|-----------------------|
D|-----------------------|
A|-----------------------|
E|-5-5--555--555--555-7--|

Chorus Pt.1 (0:56) x1
G|--------------------------------------|
D|--------------------------------------|
A|-22222222-----------------------------|
E|----------44444444-22222222-00000000--| 

Chorus Pt.2 (1:02)
G|------------------------------------|
D|------------------------------------|
A|-22222222---------------------------|
E|----------44444444-22222222-0~-2~---|

Intro x1 (1:10)
Verse/Pre-Chorus x3 (1:21)
Chorus Pt.1 x1 (1:55)
Chorus Pt.2 x1 (2:01)
Intro X2 (2:07)
Rest (2:30)

Little Fill X1 (2:40)
G|-------------|
D|-------------|
A|-------------|
E|---3--1--0---|

Verse/Pre-Chorus x1 (2:42)
Chorus Pt.1 x4 (2:53)
Chorus Pt.2 x1 (3:16)

End On (3:23)
G|----------|
D|----------|
A|----------|
E|---0~~~---|
            
Tabs too difficult? Try these video lessons and learn fast.




comments powered by Disqus
↑ Back to top | Tablatures and chords are parodies/interpretations of the original songs. You may use it for private study, scholarship, research or language learning purposes only