» » »

Zebrahead, Feel This Way Tabs (ver.1)

Artists:  A B C D E F G H I J K L M N O P Q R S T U V W X Y Z # 

Feel This Way Tabs (ver.1)

Zebrahead Tabs
Rating:
4/5 (6 votes)
Feel This Way lessons Tabs too difficult? Try these video lessons and learn fast
                Zebrahead
Waste of Mind tabs

Feel this way - Standard Tuning

Riff 1
==========
1)---------------------
2)---8---10---8--------
3)-9---9----9---7-8-9--
4)---------------------
5)---------------------
6)---------------------

Chorus
========
1)---------------------
2)-------9-9-9-9-9-----
3)-7-7-7-9-9-9-9-9-6-6-6-6-7-7-7-7
4)-9-9-9-9-9-9-9-9-7-7-7-7-9-9-9-9-
5)-9-9-9-7-7-7-7-7-7-7-7-7-9-9-9-9-
6)-7-7-7-----------5-5-5-5-7-7-7-7-

Solo 1
========
1)-----------------------------------------------------------------------
2)-17b-17b-17b-17h15p17--15-17-15------------------------15--------------
3)-----------------------------------------------16-16p14--16-16----16---
4)-----------------------------------------------------------------------
5)-----------------------------------------------------------------------
6)-----------------------------------------------------------------------


1)-----------------------------------------------------------------------
2)----------------------------10-------------------------------7---------
3)-14h16p14----7-9-7---7-9-9b----9b-7-9-7----------------------7---------
4)----------16-------9------------------------------9-7h9--9-9---9-7-9---
5)-----------------------------------------------------------------------
6)-----------------------------------------------------------------------

1)-----------------------------17b-17-14-17b-----
2)--/17b-17-15-17b-15h17-15----------------------
3)--------------------------16-------------------
4)-----------------------------------------------
5)-----------------------------------------------
6)-----------------------------------------------

1)-14h17p14----14---------------------------------------------------
2)----------17----17-15-17-15----15---------------------------------
3)----------------------------16----16-14-16-14---------------------
4)----------------------------------------------16-15-14------------
5)------------------------------------------------------------------
6)------------------------------------------------------------------

Solo 2
=========
1)-------------17-15-14-15-15----14----------------------
2)-17b-17b-17b----------------17----17-15-14-15-14----14-
3)-------------------------------------------------16----
4)-------------------------------------------------------
5)-------------------------------------------------------
6)-------------------------------------------------------

1)--------------------------7---/12-10---------------------------------
2)-----------7-7-----7-7h10--------------/14-12-------10b-10--
3)-14-16-----7-7-7h9----------------------------14-----------------
4)-------7h9----------------------------------------16--------------
5)-------------------------------------------------------------------------
6)-------------------------------------------------------------------------

1)---------------------------------------------------------------
2)-------------------------------------------7-----7-------------
3)-9b-9-7-9-9b-9-7---------------------------7-----7-------7-7---
4)-----------------9-7-9-7-9-9-------7-7h9-9---7h9---7h9-9-----9-
5)-----------------------------7h9-9-----------------------------
6)---------------------------------------------------------------

1)----------------------------------12b-12b-12-10----
2)-----------10--/12-10-10h12-12-10---------------12-
3)-------/11-----------------------------------------
4)---------------------------------------------------
5)---------------------------------------------------
6)---------------------------------------------------

1)-12b-12-10-12-10----10----------10---------------------
2)-----------------12----12-10-12----12-12b-12b-12-10-12-
3)-------------------------------------------------------
4)-------------------------------------------------------
5)-------------------------------------------------------
6)-------------------------------------------------------

1)------------------------------------------------17b-
2)-------15-15-------15-15-------15-17b-17b-17-15-----
3)-14-16-------14-16-------14-16----------------------
4)----------------------------------------------------
5)----------------------------------------------------
6)----------------------------------------------------
            

comments powered by Disqus
↑ Back to top | Zebrahead Tabs for Feel This Way. Lyrics for acoustic guitar and electric guitar. Tablatures and chords are parodies/interpretations of the original songs. You may use it for private study, scholarship, research or language learning purposes only