» » »

Death By Disco Tabs (ver.1)

Artists:  A B C D E F G H I J K L M N O P Q R S T U V W X Y Z # 

Death By Disco Tabs (ver.1)

Zebrahead
Rating:
5/5 (4 votes)

Hard to play? Try these video lessons and learn fast.
                Standard Tunning

Intro (X3)

------------------------------------------------------------------|
------------------------------------------------------------------|
------------------------------------------------------------------|
--------5-5---------------3-3----------5-5---------------3-3------|
---3-3-----6-6---------6-6------2h3-3-----6-6---------6-6---------|
----------------4-4-4--------------------------4-4-4--------------|

------------------------------------------------------------------|
------------------------------------------------------------------|
------------------------------------------------------------------|
--------5-5---------------3-3----------5-5---------------3-3------|
-2h3-3-----6-6---------6-6----------------6-6---------6-6---------|
----------------4-4-4-----------4p3-3----------3h4-4--------------|

Chorus


-----------------------------------------------------------------------|
-----------------------------------------------------------------------|
8888888888888888--------------------5555555555555555-------------------|
8888888888888888--8888888888888888--5555555555555555--6666666666666666-|
6666666666666666--8888888888888888--3333333333333333--6666666666666666-|
------------------6666666666666666--------------------4444444444444444-|

Hate me, hate me, tell me what's wrong with me and break me, break me
Go on and shatter me
Cause lately you've run me into the ground

-----------------------------------------------------------------------|
-----------------------------------------------------------------------|
8888888888888888--------------------5555555555555555-------------------|
8888888888888888--8888888888888888--5555555555555555--6666666666666666-|
6666666666666666--8888888888888888--3333333333333333--6666666666666666-|
------------------6666666666666666--------------------4444444444444444-|

And you can hate me, hate me
Call it a victory
But you'll see lately, not going easily
Cause I'm not falling down and you won't
Get the best of me now

____________
Then (intro)

------------------------------------------------------------------|
------------------------------------------------------------------|
------------------------------------------------------------------|
--------5-5---------------3-3----------5-5---------------3-3------|
---3-3-----6-6---------6-6------2h3-3-----6-6---------6-6---------|
----------------4-4-4--------------------------4-4-4--------------|

------------------------------------------------------------------|
------------------------------------------------------------------|
------------------------------------------------------------------|
--------5-5---------------3-3----------5-5---------------3-3------|
-2h3-3-----6-6---------6-6----------------6-6---------6-6---------|
----------------4-4-4-----------4p3-3----------3h4-4--------------|

___________________
Then this variation

--------------------------------------------------------------------|
--------------------------------------------------------------------|
--------------------------------------------------------------------|
--------5-5---------------3-3--------------------------3-3----------|
---3-3-----6-6---------6-6------2h33-33-33-33-------6-6-------------|
----------------4-4-4--------------------------4-4------------------|

------------------------------------------------------------------|
------------------------------------------------------------------|
------------------------------------------------------------------|
--------5-5---------------3-3----------5-5---------------3-3------|
-2h3-3-----6-6---------6-6----------------6-6---------6-6---------|
----------------4-4-4-----------4p3-3----------3h4-4--------------|

____________
Then (intro)

------------------------------------------------------------------|
------------------------------------------------------------------|
------------------------------------------------------------------|
--------5-5---------------3-3----------5-5---------------3-3------|
---3-3-----6-6---------6-6------2h3-3-----6-6---------6-6---------|
----------------4-4-4--------------------------4-4-4--------------|

------------------------------------------------------------------|
------------------------------------------------------------------|
------------------------------------------------------------------|
--------5-5---------------3-3----------5-5---------------3-3------|
-2h3-3-----6-6---------6-6----------------6-6---------6-6---------|
----------------4-4-4-----------4p3-3----------3h4-4--------------|

______
Chorus

-----------------------------------------------------------------------|
-----------------------------------------------------------------------|
8888888888888888--------------------5555555555555555-------------------|
8888888888888888--8888888888888888--5555555555555555--6666666666666666-|
6666666666666666--8888888888888888--3333333333333333--6666666666666666-|
------------------6666666666666666--------------------4444444444444444-|

Hate me, hate me, tell me what's wrong with me and break me, break me
Go on and shatter me
Cause lately you've run me into the ground

-----------------------------------------------------------------------|
-----------------------------------------------------------------------|
8888888888888888--------------------5555555555555555-------------------|
8888888888888888--8888888888888888--5555555555555555--6666666666666666-|
6666666666666666--8888888888888888--3333333333333333--6666666666666666-|
------------------6666666666666666--------------------4444444444444444-|

And you can hate me, hate me
Call it a victory
But you'll see lately, not going easily
Cause I'm not falling down and you won't
Get the best of me now

__________________________________________
SOLO ( Not entire, I'm working on it ... )

First part, play notes fast, listen to the song
for the exact rhythm :

----------------------------------------------------------------------|
------------------------------------------/15-----/18-----------------|
----------------------------/15--------17-----------------------------|
-------------15/17-------18-------------------------------------------|
-15/18----------------------------------------------------------------|
----------------------------------------------------------------------|

Second part :

15-15-15----------------------------16-16-16----------------------------|
---------16----------------------------------18-------------------------|
-------------17-17-17----------------------------19-19-19---------------|
----------------------17---15-15--------------------------20---18-18-17-|
---------------------------------18-------------------------------------|
------------------------------------------------------------------------|


15-15-15----------------------------|
---------16-------------------------|
-------------17-17-17---------------|
----------------------17---15-15----|
---------------------------------18-|
------------------------------------|

Third and last part :

-----------------------------|
-----------------------------|
-----------------------------|
-----------------------------|
-----------------------------|
-----------------------------|


_________________
Then (intro again)

------------------------------------------------------------------|
------------------------------------------------------------------|
------------------------------------------------------------------|
--------5-5---------------3-3----------5-5---------------3-3------|
---3-3-----6-6---------6-6------2h3-3-----6-6---------6-6---------|
----------------4-4-4--------------------------4-4-4--------------|

------------------------------------------------------------------|
------------------------------------------------------------------|
------------------------------------------------------------------|
--------5-5---------------3-3----------5-5---------------3-3------|
-2h3-3-----6-6---------6-6----------------6-6---------6-6---------|
----------------4-4-4-----------4p3-3----------3h4-4--------------|


________
Bridge :

-----------------------------------------------------------------------|
-----------------------------------------------------------------------|
8888888888888888--------------------5555555555555555-------------------|
8888888888888888--8888888888888888--5555555555555555--6666666666666666-|
6666666666666666--8888888888888888--3333333333333333--6666666666666666-|
------------------6666666666666666--------------------4444444444444444-|

So haaaaaaaaate me nooooow, you can't breeeeaaaaaak me doooooooown

-----------------------------------------------------------------------|
-----------------------------------------------------------------------|
8888888888888888--------------------5555555555555555-------------------|
8888888888888888--8888888888888888--5555555555555555--6666666666666666-|
6666666666666666--8888888888888888--3333333333333333--6666666666666666-|
------------------6666666666666666--------------------4444444444444444-|

So just haaaaate me noooow, you can't breeeeeaaaaak me dooooooooown

________
Chorus :

-----------------------------------------------------------------------|
-----------------------------------------------------------------------|
8888888888888888--------------------5555555555555555-------------------|
8888888888888888--8888888888888888--5555555555555555--6666666666666666-|
6666666666666666--8888888888888888--3333333333333333--6666666666666666-|
------------------6666666666666666--------------------4444444444444444-|

And you can hate me, hate me, tell me what's wrong with me and break me, break me
Go on and shatter me
Cause lately you've run me into the ground

-----------------------------------------------------------------------|
-----------------------------------------------------------------------|
8888888888888888--------------------5555555555555555-------------------|
8888888888888888--8888888888888888--5555555555555555--6666666666666666-|
6666666666666666--8888888888888888--3333333333333333--6666666666666666-|
------------------6666666666666666--------------------4444444444444444-|

And you can hate me, hate me
Call it a victory
But you'll see lately, not going easily
Cause I'm not falling down and you won't
Get the best of me now


________
Ending :

------------------------------------------------------------------|
------------------------------------------------------------------|
------------------------------------------------------------------|
--------5-5---------------3-3----------5-5---------------3-3------|
---3-3-----6-6---------6-6------2h3-3-----6-6---------6-6---------|
----------------4-4-4--------------------------4-4-4--------------|

------------------------------------------------------------------|
------------------------------------------------------------------|
------------------------------------------------------------------|
--------5-5---------------3-3----------5-5---------------3-3------|
-2h3-3-----6-6---------6-6----------------6-6---------6-6-----3-3-|
----------------4-4-4-----------4p3-3----------3h4-4--------------|
            
Hard to play? Try these video lessons and learn fast. | Correct




comments powered by Disqus
↑ Back to top | Tablatures and chords are parodies/interpretations of the original songs. You may use it for private study, scholarship, research or language learning purposes only