» » »

Zebrahead, Bootylicious Vinyl Tabs (ver.1)

Artists:  A B C D E F G H I J K L M N O P Q R S T U V W X Y Z # 

Bootylicious Vinyl Tabs (ver.1)

Zebrahead Tabs
 Rating:
4/5 (4 votes)
Bootylicious Vinyl lessons Tabs too difficult? Try these video lessons and learn fast
1
                Bootylicious Vinyl  - Zebrahead


Need help, have comments, praise, or criticism

Intro Chorus and Outro
e|-2-2-------7-7-7-7-7-------2-2-------5-5-5-5-7-|
A|-2-2-------7-7-7-7-7-------2-2-------5-5-5-5-7-|
G|-3-3-------8-8-8-8-8-------3-3-------6-6-6-6-6-|
D|-4-4-------9-9-9-9-9-------4-4-------7-7-7-7-7-|
A|-4-4-------9-9-9-9-9-------4-4-------7-7-7-7-7-|
E|-2-2-------7-7-7-7-7-------2-2-------5-5-5-5-5-|

Verse riff
e|-15-15-15-15-14-12-11-11p12-11-11p12-11p12-|
B|-14-14-14-14-14-12-11-11p12-11-11p12-11p12-|
G|-------------------------------------------|
D|-------------------------------------------|
A|-------------------------------------------|
E|-------------------------------------------|

Solo - Played with a slide but you can do it with you fingers
( ) = ghost note [ ] = play with you free fingers not the slide
e|--(15)/17--15\\-/14/15\14\12\11/12---(15)/17--15\\-[12-12h14-12-12h14-14h15]-|
B|----------------/14/15\14\12\11/12-----------------[12-12h14-12-12h14-14h15]-|
G|-----------------------------------------------------------------------------|
D|-----------------------------------------------------------------------------|
A|-----------------------------------------------------------------------------|
E|-----------------------------------------------------------------------------|
            
Submit corrections

comments powered by Disqus
↑ Back to top | Zebrahead Tabs for Bootylicious Vinyl. Lyrics for acoustic guitar and electric guitar. 1 Tablatures and chords are parodies/interpretations of the original songs. You may use it for private study, scholarship, research or language learning purposes only