» » »

Zebrahead, Blur Tabs (ver.1)

Artists:  A B C D E F G H I J K L M N O P Q R S T U V W X Y Z # 

Blur Tabs (ver.1)

Zebrahead Tabs
Rating:
0/5 (0 votes)
Blur lessons Tabs too difficult? Try these video lessons and learn fast
                (figure out strumming patern)
------------------------|
------------------------|
------4--2--4-----------|
--2---4--2--4-----------|
--2---2--0--2-----------|
--0---------------------|

chorus

------------------------|
------------------------|
------4--2--4-----------|
--2---4--2--4-----------| x3 then the fourth time
--2---2--0--2-----------|
--0---------------------|
(figure out strumming)
------------------------|
--6---4-----------------|  ..to walk away
--6---4----2------------|
--4---2----2------------|
-----------0------------|
            

comments powered by Disqus
↑ Back to top | Zebrahead Tabs for Blur. Lyrics for acoustic guitar and electric guitar. Tablatures and chords are parodies/interpretations of the original songs. You may use it for private study, scholarship, research or language learning purposes only