» » »

Blackout Bass tabs (ver.1)

Artists:  A B C D E F G H I J K L M N O P Q R S T U V W X Y Z # 

Blackout Bass tabs (ver.1)

Zebrahead
Rating:
0/5 (0 votes)

Hard to play? Try these video lessons and learn fast.
                -------------------------------------------------------------------------------
-------------------------------------------------------------------------------


Tuning: Standard

Intro
G|---------------------------------------------------------|
D|---------------------------------------------------------|
A|------------------------22224444-------------------------|
E|--22-540--22-540--22-540---------------------------------|X2

Verse
G|-----------------------------------------------------------------------|
D|-----------------------------------------------------------------------|
A|-9999999999999999----------------77777777777777775555555555555555------|
E|-----------------5555555555555555--------------------------------------|

G|-----------------------------------------------------------------------|
D|-----------------------------------------------------775544------------|
A|-9999999999999999----------------77777777777777775555------------------|
E|-----------------5555555555555555--------------------------------------|

G|-----------------------------------------------------------------------|
D|-----------------------------------------------------------------------|
A|-9999999999999999----------------77777777777777775555555555555555------|
E|-----------------5555555555555555--------------------------------------|

G|-----------------------------------------------------------------------|
D|-----------------------------------------------------------------------|
A|-9999999999999999----------------77777777777777775555------------------|
E|-----------------5555555555555555--------------------775544------------|

Pre Chorus
G|--------------------------|
D|--------------------------|
A|--------------------------|
E|-2----2----2----5555-7777-|X2

Chorus note the 111111 are 3X 11
G|-----------------------------------------------------------------------|
D|---------11111199988--------44455577-------------------------99977766--|
A|-99999999-----------55555555----------------44445555-77777777----------|
E|------------------------------------55555555---------------------------|

G|-------------------------------------------------------------99999999--|
D|---------11111199988--------44455577-----------------------------------|
A|-99999999-----------55555555----------------44445555-77777777----------|
E|------------------------------------55555555---------------------------|

intro played only once instead of twice
verse
pre chorus
chorus

G|----|
D|----|
A|-9/-|
E|----|X2

G|---------------------------------------------------------------------|
D|------------------------------------------------------------77777777-|
A|-----------------77-7777-55-5555-----------------77-7777-55----------|
E|-22-2222-55-5555-----------------22-2222-55-5555---------------------|

Solo
G|--------------------------------------------------------------------|
D|--------------------------------------------------------------------|
A|-99999999999999995555555555555555-----------------7777777777777777--|
E|---------------------------------5555555555555555-------------------|

G|--------------------------------------------------------------------|
D|----------------------------------------------------------99776644--|
A|-99999999999999995555555555555555-----------------77777777--------7/|
E|---------------------------------5555555555555555-------------------|

Chorus 
Intro
G|--|
D|--|
A|--|
E|-2|
| /  slide up
| \  slide down
| h  hammer-on
| p  pull-off
| ~  vibrato
| +  harmonic
| x  Mute note
===============================================================================
            
Hard to play? Try these video lessons and learn fast. | Correct




comments powered by Disqus
↑ Back to top | Tablatures and chords are parodies/interpretations of the original songs. You may use it for private study, scholarship, research or language learning purposes only