» » »

Big Shot Tabs (ver.1)

Artists:  A B C D E F G H I J K L M N O P Q R S T U V W X Y Z # 

Big Shot Tabs (ver.1)

Zebrahead
Rating:
0/5 (0 votes)

Hard to play? Try these video lessons and learn fast.
                Band:   Zebrahead

Intro:
---------------------------|----------------------|
---------------------------|----------------------|
----(about-3-times)--------|----------------------|
---------------------------|----------------------|
-------3-xxxx-5-3h5-5------|------3-xxxx-5-3------|
-3h5-5---------------------|--3h5-----------------|

Verse: (other guitar plays intro)
-8-8-x-x-x-x-9-8-------|--8-8/20-20-20-20-------|
-7-7-x-x-x-x-8-7-------|--7-7/19-19-19-19-------|
-7-7-x-x-x-x-8-7-------|--7-7/19-19-19-19-------|
-----------------------|------------------------|
----(about-3-times)----|------------------------|
-----------------------|------------------------|

Pre-Chorus:
-----------------------------------|
-----------------------------------|
-----------------------------------|
-7-5-555------7-------5------------|
-7-5-555--555---5--333---3---------|
-5-3-333---------------------------|
          pm_      pm_

Chorus:
--------------------------------------------|
--------------------------------------------|
----------99999999----------9999------------|
-99999999-99999999-99999999-9999-77---------|
-99999999-77777777-99999999-7777-77---------|
-77777777----------77777777------55---------|

Interlude:
   tap strings to fret were indicated with the edge of your pick
   x means scratch strings with pick
17-17-17-16-15-14-14-13-13-12-xx-xxxx-x-15-15-17-15-14-14-13-13-12-xx-xxxx-x-|
17-17-17-16-15-14-14-13-13-12-xx-xxxx-x-15-15-17-15-14-14-13-13-12-xx-xxxx-x-|
-----------------------------------------------------------------------------|
-----------------------------------------------------------------------------|
-----------------------------------------------------------------------------|
-----------------------------------------------------------------------------|

-17-17-17-16-15-14-14-13-13-12-xx-xxxx-x-17-17-17-16-15-14-13-13-12/-------|
-17-17-17-16-15-14-14-13-13-12-xx-xxxx-x-17-17-17-16-15-14-13-13-12/-------|
---------------------------------------------------------------------------|
---------------------------------------------------------------------9-9---|
---------------------------------------------------------------------9-9---|
---------------------------------------------------------------------7-7---|

Outro:
-----------------------|---------|
(a-bunch-of-times)-----|---------|
-----------------------|---------|
-9999999999999-77------|--9------|
-9999999999999-77------|--9------|
-7777777777777-55------|--7------|
            
Hard to play? Try these video lessons and learn fast. | Correct




comments powered by Disqus
↑ Back to top | Tablatures and chords are parodies/interpretations of the original songs. You may use it for private study, scholarship, research or language learning purposes only