» » »

Zebrahead, Back To Normal Bass tabs (ver.2)

Artists:  A B C D E F G H I J K L M N O P Q R S T U V W X Y Z # 

Back To Normal Bass tabs (ver.2)

Zebrahead Tabs
 Rating:
4/5 (4 votes)
Back To Normal lessons Tabs too difficult? Try these video lessons and learn fast
                                           SONG NAME: Back To Normal
                              TUNING: D,A,D,G
                           

Intro
                (this x3)           (x1)
g|--------|-----------------|------------------|
d|--------|-----------------|------------------|
a|-4-4----|-----------------|------------------|
d|-----2-2|-6666666622221111|-6666666622221----|


Verse Intro (then Straight to Verse 1)

g|6-8-9-8-6------|       
d|----------9----|       
a|---------------|       
d|---------------| 

g|----------------------------------------------------|
d|----------------------------------------------------|
A|-------------33-3-3-3-333--------------44-4-4-4-444-|
d|66-6-6-6-666--------------33-3-3-3-333/-------------| <--
                               or slide to 11th fret on d
                               for last part instead of 4
                               on a string

Pre Chorus

g|-------------------------|
d|-------------------------|
A|-----3~---------44444444~|
d|6~--------3~-------------|

Chorus (x2)

g|--------------------------------------------------|
d|--------------------------------------------------|
A|--------33333333-----------------44444444---------|
d|66666666---------3333333344444444--------22221111-|  

g|---------------------------|         g|------------------|
d|---------------------------|(x3)then d|------------------|
A|---------------------------|         a|------------------|
d|666666662222222211111111---|         d|66666666222222221-|

Verse Intro (then Straight to Verse 2)

g|6-8-9-8-6------|       
d|----------9----|       
a|---------------|       
d|---------------| 

g|----------------------------------------------------|
d|----------------------------------------------------|
A|-------------33-3-3-3-333--------------44-4-4-4-444-|
d|66-6-6-6-666--------------33-3-3-3-333/-------------| <--
                               or slide to 11th fret on d
                               for last part instead of 4
                               on a string

Pre Chorus

g|-------------------------|
d|-------------------------|
A|-----3~---------44444444~|
d|6~--------3~-------------|

Chorus (x2)

g|--------------------------------------------------|
d|--------------------------------------------------|
A|--------33333333-----------------44444444---------|
d|66666666---------3333333344444444--------22221111-|  

   This part (x3)         (x1)
g|-----------------|------------------|
d|-----------------|------------------|
a|-----------------|------------------|
d|-6666666622221111|-6666666622221----|

Bridge
          (x2)
g|-----------------------|
d|-----------------------|
A|------3~---------4~----| 
d|6~----------3~---------|

g|-------------------------------------------------------|
d|-------------------------------------------------------|
A|------------33-3-3-3-333------------4444444444444444---|
d|66-6-6-6-666------------33-3-3-3-333----------------6\-|

REST

Intro Vocals Part
(2:57)
g|----|
d|----|
A|-4--|
d|----|

Chorus (x2)

g|--------------------------------------------------|
d|--------------------------------------------------|
A|--------33333333-----------------44444444---------|
d|66666666---------3333333344444444--------22221111-|

Ending
              (x2)
g|------------------------|-----|
d|------------------------|-----|
A|------3-3-33------44----|-----|
d|66-6-6------33-3-3--11--|--6~-|   
            
Submit corrections

comments powered by Disqus
↑ Back to top | Zebrahead Bass for Back To Normal. Lyrics for acoustic guitar and electric guitar. Tablatures and chords are parodies/interpretations of the original songs. You may use it for private study, scholarship, research or language learning purposes only