» » »

Zebrahead, Back To Normal Bass tabs (ver.1)

Artists:  A B C D E F G H I J K L M N O P Q R S T U V W X Y Z # 

Back To Normal Bass tabs (ver.1)

Zebrahead Tabs
 Rating:
4/5 (5 votes)
Back To Normal lessons Tabs too difficult? Try these video lessons and learn fast
1
                Intro(00:13)

g--------------------|
d--------------------| (x4)
a--------------------|
e-44444444-1111-0000-|

Verse(00:39)

g------------|-----------------------------------------------------------|
d------------|-----------------------------------------------------------|
a-4h6764-----|---------------------------------------------4-4-4-4-4-4-44|
e--------4h6-|-4-4-4-4-4-4-44-8-8-8-8-8-8-88-1-1-1-1-1-1-11--------------|

Pre Chorus(00:53)

g---------------------|
d---------------------|
a-------------4-4-4-4-|
e-4~~~8~~~1~~~--------|

Chorus(00:59)

g-----------------------------------------------------|
d-----------------------------------------------------| (x2)
a------------------------------------444444444444-3333|
e-44444444-66666666-11111111-22222222-----------------|

Pre Verse(01:19)

g--------------------|
d--------------------| (x2)
a--------------------|
e-44444444-1111-0000-|

Verse(01:37)

g------------|-----------------------------------------------------------|
d------------|-----------------------------------------------------------|
a-4h67p64----|---------------------------------------------4-4-4-4-4-4-44|
e--------4h6-|-4-4-4-4-4-4-44-8-8-8-8-8-8-88-1-1-1-1-1-1-11--------------|

Pre Chorus(01:52)

g---------------------|
d---------------------|
a-------------4-4-4-4-|
e-4~~~8~~~1~~~--------|

Chorus(01:58)

g-----------------------------------------------------|
d-----------------------------------------------------| (x2)
a------------------------------------444444444444-3333|
e-44444444-66666666-11111111-22222222-----------------|

Bridge(02:18)

g---------------------|--------------------------------------------
d----------------(x2)-|--------------------------------------------
a-------------4~~~----|---------------4-4-4-44-44444---------------
e-4~~~8~~~1~~~--------|-4-4-4-44-44444--------------1-1-1-11-11111-

----------------------x-|
----------------------x-|
----------------------x-|
-4444-6666-8888-9999-4x-|

REST (02:45-02:58)

Chorus(02:59)

g-----------------------------------------------------|
d-----------------------------------------------------| (x2)
a------------------------------------444444444444-3333|
e-44444444-66666666-11111111-22222222-----------------|


Ending(03:18)

g-------------------------(x2)|------|
d-----------------------------|------|
a--------3-3-3-3--------44-66-|------|
e-4-4-4-4--------1-1-1-1------|--4~~~||
            
Submit corrections

comments powered by Disqus
↑ Back to top | Zebrahead Bass for Back To Normal. Lyrics for acoustic guitar and electric guitar. 1 Tablatures and chords are parodies/interpretations of the original songs. You may use it for private study, scholarship, research or language learning purposes only