» » »

Zebrahead, Anthem Bass tabs (ver.3)

Artists:  A B C D E F G H I J K L M N O P Q R S T U V W X Y Z # 

Anthem Bass tabs (ver.3)

Zebrahead Tabs
Rating:
5/5 (3 votes)
Anthem lessons Tabs too difficult? Try these video lessons and learn fast
                Band:   Zebrahead


Intro:
--------------------------------------|
--------------------------------------|
-33333333-----------------------------|
----------33333333-11111111-1013------|

Pre-Verse:
----------------|
-5-3-2-0--------|
----------------|
----------------|

Verse:
----------------------------------------------------------------|
---235------------------320-----235-----------------3-3---------|
-3--------235----753----------3--------235----753---------------|
--------3------5------1--------------3------5------1-1-1--------|

Pre-Chorus:
-----------------------------------------------|
-----------------------------------------------|
------------33--3------------------------------|
-55--5/11--1-----33--3/55--5/11-1-333333333----|

Chorus:
-------------------------------------------------------------------|
--------------------------------77------------------------33-------|
333333333333------------------77--77-------------------33----33----|
-------------33333333333333-55------55-33-111111111111-------------|

Intro

Pre-Verse

Verse

Pre-Chorus
---------------------------------------------------|
---------------------------------------------------|
------------33--3----------------------------------|
-55--5/11--1-----33--3/55--5/11--1--3-3-3-3-3333---|

Chorus

Solo:
-------------------------------------------------------------------|
-------------------------------------------------------------------|
-333333------------------------3333333-----------------------------|
--------333333-555555-1111111----------3333333-5555555-1111111-----|

Verse

Bridge: (Get up! Get up! Let the good times roll)
---------------|
---------------|
---------------|
-33333333------|

Interlude: (during palm mute)
------------|
------------|
------------|
-5--111-----|

Chorus (play the chorus three times then on the fourth time play the verse)

Ending:
---------------------|
---------------------|
---------3~----------|
-1111111-------------|
            

comments powered by Disqus
↑ Back to top | Zebrahead Bass for Anthem. Lyrics for acoustic guitar and electric guitar. Tablatures and chords are parodies/interpretations of the original songs. You may use it for private study, scholarship, research or language learning purposes only