» » »

Warum Tabs (ver.1)

Artists:  A B C D E F G H I J K L M N O P Q R S T U V W X Y Z # 

Warum Tabs (ver.1)

Zaunpfahl
Rating:
0/5 (0 votes)

Hard to play? Try these video lessons and learn fast.
                Info: Zaunpfahl - Warum sind schöne Tage so schnell um.
      Der Tab ist noch nicht ganz fertig und es sind auch noch ein paar
      Fehler vorhanden, denke ich ;-). Also bitte schreibt mir wenn ihr
      einen endeckt habt.

Reihenfolge:

Gitarre1                    Gitarre2
1.Intro  (bis 0:30)         1.-----
2.Bridge  (bis 0:45)        2.-----
3.Refrain  (bis 1:11)       3.-----
4.Solo1  (bis 1:24)         4.-----
5.Rythmus  (bis 1:36)       5.Intro  (bis 1:36)
6.-----                     6.Rythmus2  (bis 1:47)
7.-----                     7.Bridge  (bis 1:57)
8.Refrain                   8.Refrain


. = abgedämpf

Intro:
e|------------------------------------------------------------------|
B|------------------------------------------------------------------|
G|------------------------------------------------------------------|
D|-4-4-4-4-4-4-4-4-2-2-2-4-4-4-2-2-----------------4-4-4-2-2-2-4-4--|   4-mal
A|-2-2-2-2-2-2-2-2-0-0-0-0-0-0-0-0-5-5-5-5-5-5-5-5-0-0-0-0-0-0-0-0--|
E|---------------------------------3-3-3-3-3-3-3-3------------------|
   . . . . . . . . . . . . . . . . . . . . . . . . . . . . . . . .

Bridge:
e|------------------------------------------------------------------|
B|------------------------------------------------------------------|
G|------------------------------------------------------------------|
D|-----------------2-2-2-2-2-2-2-2-7-7-7-7-7-7-7-7-2-2-2-2-2-2-2-2--|
A|-5-5-5-5-5-5-5-5-0-0-0-0-0-0-0-0-5-5-5-5-5-5-5-5-0-0-0-0-0-0-0-0--|
E|-3-3-3-3-3-3-3-3--------------------------------------------------|
   . . . . . . . . . . . . . . . .     . . . . . .     . . . . . .

e|------------------------------------------------------------------|
B|------------------------------------------------------------------|
G|------------------------------------------------------------------|
D|-4-4-4-4-4-4-4-4-2-2-2-2-2-2-2-2-5-5-5-5-5-5-5-5-5-5-5-5-5-5-5-5--|
A|-2-2-2-2-2-2-2-2-0-0-0-0-0-0-0-0-3-3-3-3-3-3-3-3-3-3-3-3-3-3-3-3--|
E|------------------------------------------------------------------|
       . . . . . .     . . . . . .     . . . . . .     . . . . .

Refrain:      Anschlag muss man raushören.
e|------------------------------------------------------------------|
B|------------------------------------------------------------------|
G|------------------------------------------------------------------|
D|-9-9-9-9-9-9-9-9-7-7-7-7-7-7-7-7-5-5-5-5-5-5-5-5-5-5-5-5-5-5-5-5--|   3-mal
A|-9-9-9-9-9-9-9-9-7-7-7-7-7-7-7-7-5-5-5-5-5-5-5-5-5-5-5-5-5-5-5-5--|
E|-7-7-7-7-7-7-7-7-5-5-5-5-5-5-5-5-3-3-3-3-3-3-3-3-3-3-3-3-3-3-3-3--|

e|------------------------------------------------------------------|
B|------------------------------------------------------------------|
G|------------------------------------------------------------------|
D|-9-9-9-9-9-9-9-9-7-7-7-7-7-7-7-7-5-5-5-5-5-5-5-5-7-7-7-7-7-7-7-7--|   
A|-9-9-9-9-9-9-9-9-7-7-7-7-7-7-7-7-5-5-5-5-5-5-5-5-7-7-7-7-7-7-7-7--|
E|-7-7-7-7-7-7-7-7-5-5-5-5-5-5-5-5-3-3-3-3-3-3-3-3-5-5-5-5-5-5-5-5--|

Solo1:
|-------------------------------------------------------------------------|
|-------------------------------------------------------------------------|
|-----------4-4----------4-4----------4-4-------------------------4-5-5-4-|
|---4-4--4--2-2--2-2--2--2-2--4-4--4--2-2--------------------4-4--2-3-3-2-|
|---2-2--2-------0-0--0-------2-2--2-------5-5-5-5-5-5-5-5---2-2----------|
|------------------------------------------3-3-3-3-3-3-3-3----------------|

|---------------------------------| 
|---------------------------------| 
|------4-5-5-4--------------------| 
|-4-4--2-3-3-2--------------------| 
|-2-2-----------5-5-5-5--7-7-7-7--| 
|---------------3-3-3-3--5-5-5-5--| 

Rythmus:      Anschlag muss man raushören.
e|------------------------------------------------------------------|
B|------------------------------------------------------------------|
G|------------------------------------------------------------------|
D|-9-9-9-9-9-9-9-9-7-7-7-7-7-7-7-7-5-5-5-5-5-5-5-5-7-7-7-7-7-7-7-7--|   
A|-9-9-9-9-9-9-9-9-7-7-7-7-7-7-7-7-5-5-5-5-5-5-5-5-7-7-7-7-7-7-7-7--|
E|-7-7-7-7-7-7-7-7-5-5-5-5-5-5-5-5-3-3-3-3-3-3-3-3-5-5-5-5-5-5-5-5--|
   . . . . . . . . . . . . . . . . . . . . . . . . . . . . . . . .
Rythmus2:      Anschlag muss man raushören.
e|------------------------------------------------------------------|
B|------------------------------------------------------------------|
G|------------------------------------------------------------------|
D|-9-9-9-9-9-9-9-9-7-7-7-7-7-7-7-7-5-5-5-5-5-5-5-5-7-7-7-7-7-7-7-7--|   
A|-9-9-9-9-9-9-9-9-7-7-7-7-7-7-7-7-5-5-5-5-5-5-5-5-7-7-7-7-7-7-7-7--|
E|-7-7-7-7-7-7-7-7-5-5-5-5-5-5-5-5-3-3-3-3-3-3-3-3-5-5-5-5-5-5-5-5--|
  
            
Hard to play? Try these video lessons and learn fast. | Correct




comments powered by Disqus
↑ Back to top | Tablatures and chords are parodies/interpretations of the original songs. You may use it for private study, scholarship, research or language learning purposes only