>
 >
Ich War Dabei

Ich War Dabei Guitar Tabs

Zaunpfahl - Ich War Dabei chords, tabs, tablatures, lyrics

Guitar lessons | Add/correct | Request | Top 50 tabs Artists:  A B C D E F G H I J K L M N O P Q R S T U V W X Y Z 0-9

Ich War Dabei Guitar Tabs – Zaunpfahl

CD, Sheet music, Poster

Do you like Ich War Dabei? Share with your friends now
Tabs
Tuning: Standart


Intro. (4x)
  |-----------------------------------------|
  |-----------------------------------------|
  |----------6-66-6666--7-7-77--4-44--------|      
  |-4-4-444--6-66-6666--7-7-77--4-44--7-6---|
  |-4-4-444--4-44-4444--5-5-55--2-22--7-6---|
  |-2-2-222---------------------------5-4---|
PM                                    x x


Verse. (4x)
|----------------|
|----------------|
|----------------|    
|--4--4--4--4-5--|
|--4--4--4--4-5--|
|--2--2--2--2-3--| 


Pre-Chorus.
|--------------------------------------
|--------------------------------------
|----6--7-77-7777--4-4-444--6-66-6666--
|-4--6--7-77-7777--4-4-444--6-66-6666--
|-4--4--5-55-5555--2-2-222--4-44-4444--
|-2------------------------------------


-----------------------------------------------|
-----------------------------------------------|
-----6--7-77-7777--4-4-444-4-4-4-4---6-6-6-6-6-|
--4--6--7-77-7777--4-4-444-4-4-4-4---6-6-6-6-6-|
--4--4--5-55-5555--2-2-222-2-2-2-2---4-4-4-4-4-|
--2--------------------------------------------|


Chorus. 
  |-----------------------------------------|
  |-----------------------------------------|
  |----------6-66-6666--7-7-77--4-44--------|      
  |-4-4-444--6-66-6666--7-7-77--4-44--7-6---|
  |-4-4-444--4-44-4444--5-5-55--2-22--7-6---|
  |-2-2-222---------------------------5-4---|
PM                                    x x

  |--------------------------------------------|
  |--------------------------------------------|
  |----------6-66-6666--7-7-77--6-66--7-9------|      
  |-4-4-444--6-66-6666--7-7-77--6-66--7-9------|
  |-4-4-444--4-44-4444--5-5-55--4-44--5-7------|
  |-2-2-222------------------------------------|


Intro 2x

Verse 4x 

Pre-Chorus 1x

Chorus.
  |-----------------------------------------|
  |-----------------------------------------|
  |----------6-66-6666--7-7-77--4-44--------|      
  |-4-4-444--6-66-6666--7-7-77--4-44--7-6---|
  |-4-4-444--4-44-4444--5-5-55--2-22--7-6---|
  |-2-2-222---------------------------5-4---|
PM                                    x x

  |---------------------------------------------|
  |------------------------------------7-7-7-7--|
  |----------6-66-6666--7-7-77--6-66------------|      
  |-4-4-444--6-66-6666--7-7-77--6-66------------|
  |-4-4-444--4-44-4444--5-5-55--4-44------------|
  |-2-2-222-------------------------------------|


Solo. (2x)
|-------7-------7-------7-9-7------|
|--7-10----7-10----7-10-------10---|
|----------------------------------|
|----------------------------------|
|----------------------------------|
|----------------------------------|


Bridge.

 |--------------------------------------------------------------------|
 |--------------------------------------------------------------------|
 |--------------------------------------------------------------------|
 |-4-444444444444444444444444444444444--2-2-4-44444444444444444444444-|
 |-4-444444444444444444444444444444444--2-2-4-44444444444444444444444-|
 |-2-222222222222222222222222222222222--0-0-2-22222222222222222222222-|
PM   xxxxxxxxxxxxxxxxxxxxxxxxxxxxxxxxx        xxxxxxxxxxxxxxxxxxxxxxx


Chorus.
|-----------------------------------------|
  |-----------------------------------------|
  |----------6-66-6666--7-7-77--4-44--------|      
  |-4-4-444--6-66-6666--7-7-77--4-44--7-6---|
  |-4-4-444--4-44-4444--5-5-55--2-22--7-6---|
  |-2-2-222---------------------------5-4---|
PM                                    x x

  |------------------------------------------------------|
  |------------------------------------------------------|
  |----------6-66-6666--777777777777-6-6-6-6-6-----------|      
  |-4-4-444--6-66-6666--777777777777-6-6-6-6-6--4.--4.---|
  |-4-4-444--4-44-4444--555555555555-4-4-4-4-4--4.--4.---|
  |-2-2-222-------------------------------------2.--2.---|





Comments


Popular Zaunpfahl tabs & chords
Georg W Chords
Ohne Dich Chords
Schon Chords
Subkultur Tabs
Tote Tanzen Keinen Pogo Tabs
Und Mir Gehts Gut Tabs
Georg W Ukulele
Ohne Dich Ukulele
Polizisten Ukulele
Schon Ukulele


Song lyrics



↑ Back to top | Tablatures and chords are parodies/interpretations of the original songs. You may use it for private study, scholarship, research or language learning purposes only
© 2014 AZChords.com Contact us | Privacy policy | DMCA | Add/correct tabs | Request tabs | Top 50 tabs