» » »

Zappa Frank, Revised Music For Guitar And Orchestra Tabs (ver.1)

Artists:  A B C D E F G H I J K L M N O P Q R S T U V W X Y Z # 

Revised Music For Guitar And Orchestra Tabs (ver.1)

Zappa Frank Tabs
 Rating:
4/5 (4 votes)
Revised Music For Guitar And Orchestra lessons Tabs too difficult? Try these video lessons and learn fast
1
                Revised Music for Guitar and Low budget Orchestra by Frank Zappa

-3-----------------1--5-|
----4-----------3-------|
-------3--0--3----------|
------------------------|
------------------------|
------------------------|

-0-----0--5--9--8--5-----0--------------0--3--7--9-------------|
----2-----------------6-----3--1-----1-----------------7-----4-|
----------------------------------2-----------------8-----6----|

-------0--11-9-----------------------1--5--3-------------------------|
-0--1-----------9-----0-----------------------4--3-------------------|
-------------------7-----3--3--2--3-----------------2--3--3--2-------|

----------1--------------1--5--3-----------------------------1--2--1----|
-------------1--------------------4--3--------------1--3--4-----------3-|
----------------3--2--3-----------------2--0--2--3----------------------|
----0--1----------------------------------------------------------------|
-3----------------------------------------------------------------------|

----------3--1-----------1-----------6--9-------------------------------|
-2--1-----------------3-----1--0--3--------9-----------8----------------|
-------1--------------------------------------8-----------7-------------|
----------------4--1-----------------------------8-----------7----------|
----------------------------------------------------8-----------7-----2-|

-------------------------3--0-----------6--4-------------------------|
-------0--1--0-----0--3--------------2--------4--3--0--1--0-----0--3-|
----2-----------2--------------2--3--------------------------2-------|
-3-------------------------------------------------------------------|

any comments,corrections or requests welcome
            
Submit corrections

comments powered by Disqus
↑ Back to top | Zappa Frank Tabs for Revised Music For Guitar And Orchestra. Lyrics for acoustic guitar and electric guitar. 1 Tablatures and chords are parodies/interpretations of the original songs. You may use it for private study, scholarship, research or language learning purposes only