>
 >
Rdnzl

Rdnzl Guitar Tabs

Zappa Frank - Rdnzl chords, tabs, tablatures, lyrics

Guitar lessons | Add/correct | Request | Top 50 tabs Artists:  A B C D E F G H I J K L M N O P Q R S T U V W X Y Z 0-9

Rdnzl Guitar Tabs – Zappa Frank

CD, Sheet music, Poster

Do you like Rdnzl? Share with your friends now
TabsTabs v2
RDNZL aka REDUNZIL -   FRANK ZAPPA
                          --------------------------------------

                  From the album 'Studio Tan' (among others)




E----------------------------------------------------------------7---8---12--|
B----------------------5-5-7---8---------------------8-7---10-10---8---9-----|
G------5-5-4---5-7-6-4-------7---8-7----10-10-9-7-10-----9-1-----------------|
D--7-5-------7-----------------------10--------------------------------------|
A----------------------------------------------------------------------------|
E----------------------------------------------------------------------------|


E---------------------------------------------------------------|
B--------10-8----------12-----------10-8----------10-8----------|
G--9-7-9------7---9-------12-9-7-9-------7-9-7-9----------------|
D---------------7---10------------------------------------------|
A---------------------------------------------------------------|
E---------------------------------------------------------------|

E--------------------------------------------------------------------------|
B--9-11------------------------------------------11-------13-------16------|
G-------12-10----12-10-9------8---------13-12-11-------------13-15---------|
D-------------10---------10-9---8-11-10-------------13-12------------------|
A--------------------------------------------------------------------------|
E--------------------------------------------------------------------------|

E--------------------13----------------------------------------------------|
B--13-15-13-15-16-15----16-15-13-------------------------------------------|
G--------------------------------15----------------------10----------------|
D-----------------------------------15-10-12-10-12-13-12----13-12-10-------|
A--------------------------------------------------------------------13-8--|
E--------------------------------------------------------------------------|

E------------------------------------------------------------------------|
B------------------------------------------------------------------------|
G------------------------------------------------------------------------|
D--------9-7-----------11----------7-----------------9-7-----------------|
A--9-7-9------7---9-------12-9-7-9---10-7-9-7-7-9-10-----10-10-9-7-------|
E---------------7---10---------------------------------------------10----|

E-----------------------------------------------------|
B---------------------------------------------------7-|
G----5---------------6-----5------------------7-------|
D--8---7-5-0-7-5-4---------------8-7-6-9--------7-8---|
A------------------5---6-----6-5---------10-9---------|
E-----------------------------------------------------|

E-------------------------9-8--------------------------------8--|
B--10-8---8------------11-----9-8----------------------11-------|
G-------7---9-------11------------10-9-------9----9-10----12----|
D-------------10-11--------------------10------12---------------|
A-----------------------------------------10--------------------|
E---------------------------------------------------------------|

E----------7-----------7----------------------------10-9----12-14------------|
B--9-7-7-9---7-9-7-7-9---9-10-9-7----------------10------12-------14-12------|
G---------------------------------9-7-6-6-7----9-----------------------------|
D--------------------------------------------9-------------------------------|
A----------------------------------------------------------------------------|
E----------------------------------------------------------------------------|

E----------------------|
B----------------------|
G-------7-6-9----------|
D-------------9--------|
A---9-7----------------|
E----------------------|

E-----------------10---------------10---------------10---------------10---|
B--12-12-10-10-12------12-10-10-12------12-10-10-12------12-10-10-12------|
G--------------------9----------------9----------------9----------------9-|
D-------------------------------------------------------------------------|
A-------------------------------------------------------------------------|
E-------------------------------------------------------------------------|

E--10-9---------------------------------------------------------14-----------|
B-------12-10-------------------10------------------14----15-------15--------|
G-------------12-11-11-12-9---9----12-11-9-------------14----16--------------|
D---------------------------9--------------12-11-----------------------------|
A------------------------------------------------12--------------------------|
E----------------------------------------------------------------------------|

E--12----15----------------------------------------------------------6-------|
B-----15----12---------------------------------------------------8-6---------|
G--------------14-------12--------------8-7-------------8-7----7-------------|
D-----------------14-12---------------8-----8-6-5-----8-----10---------------|
A--------------------------14-12-10-8---------------8------------------------|
E-------------------------------------------------8--------------------------|

E--------8------13-11-9-8------------------------------------------------------|
B--9-8-9----11------------11-9-8-----------------------------------------------|
G--------------------------------10-8------------------------------------------|
D-------------------------------------11-10-8--------------10-8----------------|
A---------------------------------------------11-10-8-----------11-10-8--------|
E-----------------------------------------------------11-9--------------11-9-8-|
                                                           *******************
                                                             This marimba part

E--------------------------11-9-14-11---------------------|
B------------------9-11-12------------14------------------|
G--------------8-9----------------------------------------|
D--------6-8-9--------------------------------------------|
A---6-7---------------------------------------------------|
E---------------------------------------------------------|
    ************************************
     is acctually one octave down


    SOLO:
E-----------------7-----------------------7-7-4-----------------------------|
B-------------------7---------------------------7-7-9-----------------------|
G---6-4-6-4-----------6-4------------------------------6-4------------------|
D------------6-4----------4-6-4--6-4-----------------------6-4--4-4-4-4-----|
A------------------------------------6-4--------------------------------4-4-|
E---------------------------------------------------------------------------|


E-------------------------------------------------------------------------------|
B-------------------------------------------------------------------------------|
G-------------------------------------------------------------------------------|
D----------------------------------------------------------------------------4--|
A--2-4-2-4-4-2-----------------------------------------------------------4-2----|
E--------------4-2--2-2-2-4-5-7--2-2-2-2-2-4-5-7-2-2-2-2-2-4-5-2-4-5-5-4--------|

     (The ad lib solo part ommitted)


E----------------------------------5---7--------------------|
B-----------5-8---5------------8-5---8----------------------|
G--7-5-4--------5---4-5----4-7------------------------------|
D---------5--------------7----------------------------------|
A-----------------------------------------------------------|
E-----------------------------------------------------------|

E---------------------------------------------------------------------|
B-------------6-------------------------------------------------------|
G---8-5---------8-----4-4-2-2-4-6-------------------------------------|
D-------8-6-8-----6-4------------------------6-5----------------10-9--|
A---------------------------------5-5-7-8-5------8-7-5-5-7-8-5--------|
E---------------------------------------------------------------------|

E----------------------------------------|
B----------------------------------------|
G----------------------------------------|
D---6-6-8-10-6----8-6-6-8-10-------------|
A---------------6-------------6-8-9-10---|
E----------------------------------------|





Comments


Popular Zappa Frank tabs & chords
Dirty Love Bass Tabs
Nanook Rubs It Bass Tabs
Packard Goose Chords
Big Swifty 1 Tabs
Crusin For Burgers Tabs
Marquesons Chicken 1 Tabs
Packard Goose Tabs
Peaches En Regalia Tabs
Revised Music For Guitar And Orchestra Tabs
Who Needs The Peace Corps Tabs


Song lyrics



↑ Back to top | Tablatures and chords are parodies/interpretations of the original songs. You may use it for private study, scholarship, research or language learning purposes only
© 2014 AZChords.com Contact us | Privacy policy | DMCA | Add/correct tabs | Request tabs | Top 50 tabs