» » »

Witch Hunter Tabs (ver.2)

Artists:  A B C D E F G H I J K L M N O P Q R S T U V W X Y Z # 

Witch Hunter Tabs (ver.2)

Zao
Rating:
3/5 (1 vote)

Tabs too difficult? Try these video lessons and learn fast.
                drop D
(o=pm)

 *w/o distortion*
e|--------------------------------------------|
B|--------------------------------------------|
G|--------------------------------------------|
D|--------------------------------------------|
A|----0---0---0---0---0---8---8---8---8----8--|
E|--7---7---7---7---7---7---7---7---7---7-----|

 *distortion* (x4)
e|---------------------------------------------|
B|---------------------------------------------|
G|-------10---5--------------------------------|   
D|-7-7-o-10-3-5------(let ring on#4)-----------|
A|-7-7-o-8--3-3--------------------------------|
E|-7-7-o----3----------------------------------|

*distortion*
e|---------------------------------------------|
B|---------------------------------------------|
G|---------------------------------------------|
D|---------------------------------------------|
A|----0---0---0---0---0---8---8---8---8----8---|
E|--7---7---7---7---7---7---7---7---7---7------|
            
Tabs too difficult? Try these video lessons and learn fast.


comments powered by Disqus
↑ Back to top | Tablatures and chords are parodies/interpretations of the original songs. You may use it for private study, scholarship, research or language learning purposes only