» » »

Zao, Times Of Separation Tabs (ver.1)

Artists:  A B C D E F G H I J K L M N O P Q R S T U V W X Y Z # 

Times Of Separation Tabs (ver.1)

Zao Tabs
 Rating:
4/5 (4 votes)
Times Of Separation lessons Tabs too difficult? Try these video lessons and learn fast
                Song Title: Times of Separation


Tuning: Standard

... = repeat [listen to the song to get how many times].
/ = slide
x = palm mute


Most parts have both guitars playing the same thing (or just one playing), unless otherwise noted.


(intro)
e|-------------------------------------------------------------------------|
B|-------------------------------------------------------------------------|
G|-------------------------------------------------------------------------|
D|--2-2-2-2--3-3--4...---2-2--2-2-2...---3---2...--------------------------|
A|--2-2-2-2--3-3--4...---2-2--2-2-2...---3---2...--------------------------|
E|--0-0-0-0--1-1--2...---0-0--0-0-0...---1---0...----6-6--7-7--0-----7/1---|


(0:49)
e|--------------------------------------------------------|
B|--------------------------------------------------------|
G|--------------------------------------------------------|
D|--22222222222222222222222--3----2222...---2-2-2-2-2-2-2-|
A|--22222222222222222222222--3----2222...---2-2-2-2-2-2-2-|
E|--00000000000000000000000--1----0000...---0-0-0-0-0-0-0-|



(1:06)	
(Guitar 1)					       (Guitar 2)
e|------------------------------------------------------|--------|
B|------------------------------------------------------|--------|
G|--------------------3--4--3--1------------------------|--------|
D|--2--0--2--3--2--0--------------4--3--2--3...---------|--2...--|
A|------------------------------------------------------|--2...--|
E|------------------------------------------------------|--0...--|



(1:34)
(Guitar 1)						(Guitar 2 comes in at 1:50)
e|--14--15-----19--23-----14--15------14--15--12--19--24...--|-------|
B|-----------------------------------------------------------|-------|
G|-----------------------------------------------------------|-------|
D|-----------------------------------------------------------|-2...--|
A|-----------------------------------------------------------|-2...--|
E-----------------------------------------------------------|-0...--|



(1:57)
e|-------------------------------------------------------|
B|-------------------------------------------------------|
G|-------------------------------------------------------|
D|--222222---14...--------15--14--15--14--15--14---------|
A|--222222---14...--------15--14--15--14--15--14---------|
E|--000000---12...--------13--12--13--12--13--12---------|



(2:11)
(Guitar 1)	        
e|--14--15--12--14--15--12--14--24...--|
B|-------------------------------------|
G|-------------------------------------|
D|-------------------------------------|
A|-------------------------------------|
E|-------------------------------------|

(2:11)
(Guitar 2)(Plus some frets on B, I can't tell which)
e|-----7777777--88888888...----------|
B|-----------------------------------|
G|-----------------------------------|
D|-----------------------------------|
A|-----------------------------------|
E|-----------------------------------|

(2:11)
(Guitar 3)
e|---------------|
B|---------------|
G|---------------|
D|--0...---------|
A|--0...---------|
E|--0...---------|



(2:44)
e|-------------------------------------------------------------------------|
B|-------------------------------------------------------------------------|
G|-------------------------------------------------------------------------|
D|--5--4--5--4--5--4--2--5--4--5--4--5--5--9--5--4--5--4--5--4--2--5--4--2-|
A|--x--x--x--x--x--x--x--x--x--x--x--x--x--x--x--x--x--x--x--x--x--x--x--x-|
E|--3--2--3--2--3--2--0--3--2--3--2--3--3--7--3--2--3--2--3--2--0--3--2--0-|



I don't know how 2:37 - 2:44 is played, but 2:44 continues off here.
(Guitar 2)			(Guitar 1)
e|----------------------------|-------------------------------------------|
B|----------------------------|-------------------------------------------|
G|----------------------------|-------------------------------------------|
D|--6-6-----6-7-6-6-6-6...----|--3-3-----3-4-7-4-3-4...-------------------|
A|--6-6-----6-7-6-6-6-6...----|--3-3-----3-4-7-4-3-4...-------------------|
E|--4-4-----4-5-4-4-4-4...----|--1-1-----1-2-5-2-1-2...-------------------|

(2:59)
(Guitar 1)				      (Guitar 2 [Joins in at 3:12])
e|-------------------------------------------------|----------------------|
B|-------------------------------------------------|----------------------|
G|-------------------------------------------------|----------------------|
D|--2-2-2--------------...------15-14-15-14-15-14--|----------------------|
A|--2-2-2--------------...------15-14-15-14-15-14--|--7-3-7-3-10----------|
E|--0-0-0---12-12-12-12...------13-12-13-12-13-12--|----------------------|


(3:25)		     
e|---------------------------------------------------|
B|---------------------------------------------------|
G|---------------------------------------------------|
D|--2-2-2-2-2-2-5-5-5-5-5-5-3-3-3-3-3-3-2-2-2-2-2-2--|
A|--2-2-2-2-2-2-5-5-5-5-5-5-3-3-3-3-3-3-2-2-2-2-2-2--|
E|--0-0-0-0-0-0-3-3-3-3-3-3-1-1-1-1-1-1-0-0-0-0-0-0--|


				       
e|------------------------------------------|
B|------------------------------------------|
G|------------------------------------------|
D|--2-2-2-2-2-2-5-5-5-5-5-5-3-3-3-3-3-3-----|
A|--2-2-2-2-2-2-5-5-5-5-5-5-3-3-3-3-3-3-----|
E|--0-0-0-0-0-0-3-3-3-3-3-3-1-1-1-1-1-1-----|


(3:36 - start slowing down here.)
e|------------------------|
B|------------------------|
G|------------------------|
D|--1-1--1-1--1-1--1------|
A|--1-1--1-1--1-1--1------|
E|--1-1--1-1--1-1--1------|



(4:04 - speed back up here.)
e|-------------------------------------------------------------------------|
B|-------------------------------------------------------------------------|
G|-------------------------------------------------------------------------|
D|--22222222222222------------2-2-2-3-3-3-7-7-7-3-3-2-2-3...---------------|
A|--22222222222222------------2-2-2-3-3-3-7-7-7-3-3-2-2-3...---------------|
E|--00000000000000--7/0-------0-0-0-1-1-1-5-5-5-1-1-0-0-1...---------------|


(4:22)
(Guitar 1)			    (Guitar 2)
e|----------------------------------|-----------555555-33-5555555555555555-|
B|----------------------------------|44444444-5----------------------------|
G|----------------------------------|--------------------------------------|
D|----------------------------------|--------------------------------------|
A|--2-2-2-3-3-3-7-7-7-3-3-2-2-3-3...|--------------------------------------|
E|--0-0-0-1-1-1-5-5-5-1-1-0-0-1-1...|--------------------------------------|


(4:35)
e|--------------------------------|
B|--------------------------------|
G|--------------------------------|
D|--2--3--7--3--2--3-----2--------|
A|--x--x--x--x--x--x-----x--------|
E|--0--1--5--1--0--1...--0--------|
            
Submit corrections

comments powered by Disqus
↑ Back to top | Zao Tabs for Times Of Separation. Lyrics for acoustic guitar and electric guitar. Tablatures and chords are parodies/interpretations of the original songs. You may use it for private study, scholarship, research or language learning purposes only