» » »

Zao, Skin Like Winter Tabs (ver.1)

Artists:  A B C D E F G H I J K L M N O P Q R S T U V W X Y Z # 

Skin Like Winter Tabs (ver.1)

Zao Tabs
 Rating:
4/5 (4 votes)
Skin Like Winter lessons Tabs too difficult? Try these video lessons and learn fast
                                             Zao - Skin Like Winter

Drop C Tuning 

Intro
  Q=159
  N.C.
 4/4
  Gtrs I, II
  E E E E E E E E   E E E E E E E E   E E E E E E E E   E E E E E E E E
|-----------------|-----------------|-----------------|-----------------|
|-----------------|-----------------|-----------------|-----------------|
|-----------------|-----------------|-----------------|-----------------|
|-----------------|-----------------|-----------------|-----------------|
|-----------------|-----------------|-----------------|-----------------|
|-1-4-4-1-4-1-1-4-|-1-4-4-1-4-1-1-4-|-1-4-4-1-4-1-1-4-|-1-4-4-1-4-1-1-1-|


    D5      D5   C5     F5 D5   D5F5  D5F5D5  F5
   2/2                         4/4
    Gtr I
    W             H     Q  Q    E E E E E E E E
||-------------|--------------|-----------------|
||o------------|--------------|-----------------|
||-------------|--------------|-----------------|
||--7----------|-10-----3--0--|-0-3-3-0-3-0-0-3-|
||o-0----------|-10-----3--0--|-0-3-3-0-3-0-0-3-|
||--0----------|-10-----3--0--|-0-3-3-0-3-0-0-3-|
|
|   Gtr II
|   H.      Q     Q  Q  Q  Q    E E E E E E E E
||-------------|--------------|-----------------|
||o------------|--------------|-----------------|
||-------------|--------------|-----------------|
||--0----------|-10-----3--0--|-----------------|
||o-0-------0--|-10-----3--0--|-0-3-3-0-3-0-0-3-|
||--0-------0--|-10--0--3--0--|-0-3-3-0-3-0-0-3-|


  D5F5  D5F5D5  F5  D5F5  D5F5D5  F5  D5F5  D5F5D5
  E E E E E E E E   E E E E E E E E   E E E E E E E E
|-----------------|-----------------|-------------------||
|-----------------|-----------------|------------------o||
|-----------------|-----------------|-------------------||
|-0-3-3-0-3-0-0-3-|-0-3-3-0-3-0-0-3-|-0-3-3-0-3-0-0-0---||
|-0-3-3-0-3-0-0-3-|-0-3-3-0-3-0-0-3-|-0-3-3-0-3-0-0-0--o||
|-0-3-3-0-3-0-0-3-|-0-3-3-0-3-0-0-3-|-0-3-3-0-3-0-0-0---||
|
| E E E E E E E E   E E E E E E E E   E E E E E E E E
|-----------------|-----------------|-------------------||
|-----------------|-----------------|------------------o||
|-----------------|-----------------|-------------------||
|-----------------|-----------------|-------------------||
|-0-3-3-0-3-0-0-3-|-0-3-3-0-3-0-0-3-|-0-3-3-0-3-0-0-0--o||
|-0-3-3-0-3-0-0-3-|-0-3-3-0-3-0-0-3-|-0-3-3-0-3-0-0-0---||


  D5      D5   C5     F5 D5
 2/2                         2/4
  W             H     Q  Q    +H
|------------|--------------|--------||
|------------|--------------|--------||
|------------|--------------|--------||
|-7----------|-10-----3--0--|-(0)----||
|-0----------|-10-----3--0--|-(0)----||
|-0----------|-10-----3--0--|-(0)----||
|
| H.      Q     Q  Q  Q  Q    +H
|------------|--------------|--------||
|------------|--------------|--------||
|------------|--------------|--------||
|-0----------|-10-----3--0--|-(0)----||
|-0-------0--|-10-----3--0--|-(0)----||
|-0-------0--|-10--0--3--0--|-(0)----||


 Pre-Verse
  N.C.                                                        D5
 4/4
           ~               ~               ~               ~
   E  E Q  H       E  E Q  H       E  E Q  H       E  E Q  H
|---------------|---------------|---------------|---------------------|
|---------------|---------------|---------------|---------------------|
|---------------|---------------|---------------|---------------------|
|---------------|---------------|---------------|---------------------|
|--2s=1s7--6----|--2s=1s7--6----|--2s=1s7--6----|--2s=1s7--6----------|
|---------------|---------------|---------------|---------------------|
|
|                                                             PM----|
| +W              +W              +W              +H.         S S S S
|---------------|---------------|---------------|---------------------|
|---------------|---------------|---------------|---------------------|
|---------------|---------------|---------------|---------------------|
|-(0)-----------|-(0)-----------|-(0)-----------|-(0)-----------------|
|-(0)-----------|-(0)-----------|-(0)-----------|-(0)---------0-0-0-0-|
|-(0)-----------|-(0)-----------|-(0)-----------|-(0)---------0-0-0-0-|


    D5
           ~                    ~
    E E Q  H             E E Q  H
||---------------------|--------------------|
||o--------------------|--------------------|
||---------------------|--------------------|
||---------------------|--------------------|
||o-2s1s7--6-----------|-2s1s7--6-----------|
||---------------------|--------------------|
|
|   PM         PM--------|          PM-------
|   E H      E S S S S   E H      E S S S S
||---------------------|--------------------|
||o--------------------|--------------------|
||---------------------|--------------------|
||---------------------|--------------------|
||o-0----------0-0-0-0-|-0----------0-0-0-0-|
||--0----------0-0-0-0-|-0----------0-0-0-0-|


                       1.
         ~                         ~
  E E Q  H             E E Q       H
|--------------------|--------------------------||
|--------------------|-------------------------o||
|--------------------|--------------------------||
|--------------------|--------------------------||
|-2s1s7--6-----------|-2s1s7-------6-----------o||
|--------------------|--------------------------||
|
|-|          PM--------|   PM------|   PM----|
| E H      E S S S S   E E S S S S E E S S S S
|--------------------|--------------------------||
|--------------------|-------------------------o||
|--------------------|--------------------------||
|--------------------|--------------------------||
|-0----------0-0-0-0-|-0---0-0-0-0-0---0-0-0-0-o||
|-0----------0-0-0-0-|-0---0-0-0-0-0---0-0-0-0--||


                Verse
  2.
  D5             D5          N.C.
 3/4            4/4
                 PM--------|
  E E Q  Q       E   E E   E  Q    E.   S
|------------||--------------<5>------(<5>)-|
|------------||o------------------<4>-------|
|------------||-----------------------------|
|------------||-----------------------------|
|-2s1s7--6---||o----------------------------|
|------------||--6---5-3---0----------------|
|
| PM             PM--------|
| E H      E     S S E S S E  Q    Q
|------------||--------------<5>------------|
|------------||o------------------<4>-------|
|------------||-----------------------------|
|------------||-----------------------------|
|-0----------||o-0-0-0-0-0-0----------------|
|-0----------||--0-0-0-0-0-0----------------|


  D5          N.C.             D5          N.C.
  PM--------|
  E   E E   E  Q    E.   S     E   E E   E  Q    E.   S
|-------------<5>------(<5>)-|-------------<5>------(<5>)---|
|------------------<4>-------|------------------<4>---------|
|----------------------------|------------------------------|
|----------------------------|------------------------------|
|----------------------------|------------------------------|
|-6---5-3---0----------------|-6---5-3---0------------------|
|
| PM--------|                  PM--------|
| S S E S S E  Q    Q          S S E S S E  Q    Q
|-------------<5>------------|-------------<5>--------------|
|------------------<4>-------|------------------<4>---------|
|----------------------------|------------------------------|
|----------------------------|------------------------------|
|-0-0-0-0-0-0----------------|-0-0-0-0-0-0------------------|
|-0-0-0-0-0-0----------------|-0-0-0-0-0-0------------------|


                                  Q
  D5
  PM--------|
  E   E   E E  Q         Q     4x
|-------------<5>--------------||-|
|-----------------------<4>---o||-|
|------------------------------||-|
|------------------------------||-|
|-----------------------------o||-|
|-6---5---3-0------------------||-|
|
| PM------|    PM-------|
| S S S S E E  S  S S S  E  E  4x
|------------------------------||-|
|-----------------------------o||-|
|------------------------------||-|
|------------------------------||-|
|-0-0-0-0-0----0--0-0-0--0----o||-|
|-0-0-0-0-0----0--0-0-0--0-----||-|


   Chorus
 =100
    D5
    S E E S S E E S   S  S  S  S   S E E S S E E S   S  S  S  S
||-------------------------------|---------------------------------||
||o------------------------------|--------------------------------o||
||-------------------------------|---------------------------------||
||--0-0-0-0-0-0-0-0---0--0--0--0-|-0-0-0-0-0-0-0-0---0--0--0--0----||
||o-0-0-0-0-0-0-0-0---0--0--0--0-|-0-0-0-0-0-0-0-0---0--0--0--0---o||
||--0-0-0-0-0-0-0-0---0--0--0--0-|-0-0-0-0-0-0-0-0---0--0--0--0----||
|
|   S E E S S E E S   S  S  S  S   S E E S S E E S   S  S  S  S
||-------------------------------|---------------------------------||
||o------------------------------|--------------------------------o||
||------------------/15-15-15-15-|-----------------/17-17-17-17----||
||--0-0-0-0-0-0-0-0---x--x--x--x-|-0-0-0-0-0-0-0-0---x--x--x--x----||
||o-0-0-0-0-0-0-0-0-/13-13-13-13-|-0-0-0-0-0-0-0-0-/15-15-15-15---o||
||--0-0-0-0-0-0-0-0--------------|-0-0-0-0-0-0-0-0-----------------||


    D5
    S  E E   S S E E   S  S  S S S   S  E E   S S E E   S  S  S S S
||---------------------------------|---------------------------------||
||o--------------------------------|--------------------------------o||
||---------------------------------|---------------------------------||
||--0--0-0---0-0-0-0---0--0--0-0-0-|-0--0-0---0-0-0-0---0--0--0-0-0--||
||o-0--0-0---0-0-0-0---0--0--0-0-0-|-0--0-0---0-0-0-0---0--0--0-0-0-o||
||--0--0-0---0-0-0-0---0--0--0-0-0-|-0--0-0---0-0-0-0---0--0--0-0-0--||
|
|                    PM   ~~~                         PM   ~~~
|   Q      E   Q     E    Q          Q      E   Q     E    Q
||---------------------------------|---------------------------------||
||o--------------------------------|--------------------------------o||
||---------------------------------|---------------------------------||
||---------------------------------|---------------------------------||
||o----------------------[7]-------|----------------------[7]-------o||
||--0/-----8---7-----0-------------|-0/-----8---7-----0--------------||


   Bridge
    N.C.
                                     PM
    W                       Q   E Q  E  Q
||-------------------||-||-------------------||
||o-----------------o||-||o-----------------o||
||-------------------||-||-------------------||
||-------------------||-||-------------------||
||o-----------------o||-||o------------[7]--o||
||-------------------||-||--0/--8-7--0-------||
|
|            PM ~~~                  PM ~~~
|   Q   E Q  E  Q           Q   E Q  E  Q
||-------------------||-||-------------------||
||o-----------------o||-||o-----------------o||
||-------------------||-||-------------------||
||-------------------||-||-------------------||
||o------------[7]--o||-||o------------[7]--o||
||--0/--8-7--0-------||-||--0/--8-7--0-------||


      D5  BbA5 D5Bb5    D5  BbA5 D5Bb5
               PM                PM
      Q   E Q  E  Q     Q   E Q  E  Q        4x
|-||------------------|----------------------||
|-||o-----------------|---------------------o||
|-||------------------|----------------------||
|-||------------------|----------------------||
|-||o------------[7]--|------------[7]b7.5--o||
|-||--0/--8-7--0------|-0/--8-7--0-----------||
|
|              PM                PM
|     Q   E Q  E  Q     Q   E Q  E  Q        4x
|-||------------------|----------------------||
|-||o-----------------|---------------------o||
|-||------------------|----------------------||
|-||--0---8-7-----8---|-0---8-7-----8--------||
|-||o-0---8-7--0--8---|-0---8-7--0--8-------o||
|-||--0---8-7--0--8---|-0---8-7--0--8--------||


   Outro
    Q=162                                           Q=100
    D5
    Gtrs I, II
    PM------|    PM-------------|   PM------|         PM-----------|
    S S S S e Q  Q  E   S S S S e E S S S S e E  8x   e. e. q  E E E
||--------------------|--------------------------||-|----------------*|
||o-------------------|-------------------------o||-|----------------*|
||--------------------|--------------------------||-|----------------*|
||--0-0-0-0-0----0--0-|-0-0-0-0-0---0-0-0-0-0----||-|-0--0--0--0-0-0-*|
||o-0-0-0-0-0----0--0-|-0-0-0-0-0---0-0-0-0-0---o||-|-0--0--0--0-0-0-*|
||--0-0-0-0-0----0--0-|-0-0-0-0-0---0-0-0-0-0----||-|-0--0--0--0-0-0-*|
--------------------------------------------------------------------------------

Tablature Legend
----------------
 h   - hammer-on
 p   - pull-off
 b   - bend
 pb  - pre-bend
 r   - bend release (if no number after the r, then release immediately)
 /\  - slide into or out of (from/to "nowhere")
 s   - legato slide
 S   - shift slide
 - natural harmonic
[n]  - artificial harmonic
n(n) - tapped harmonic
 ~   - vibrato
 tr  - trill
 T   - tap
 TP  - trem. picking
 PM  - palm muting
\n/  - tremolo bar dip; n = amount to dip
 \n  - tremolo bar down
 n/  - tremolo bar up
/n\  - tremolo bar inverted dip
 =   - hold bend; also acts as connecting device for hammers/pulls
 <> - volume swell (louder/softer)
 x   - on rhythm slash represents muted slash
 o   - on rhythm slash represents single note slash
            
Submit corrections

comments powered by Disqus
↑ Back to top | Zao Tabs for Skin Like Winter. Lyrics for acoustic guitar and electric guitar. Tablatures and chords are parodies/interpretations of the original songs. You may use it for private study, scholarship, research or language learning purposes only