» » »

Resistance Tabs (ver.1)

Artists:  A B C D E F G H I J K L M N O P Q R S T U V W X Y Z # 

Resistance Tabs (ver.1)

Zao
Rating:
0/5 (0 votes)
Tabs too difficult? Try these video lessons and learn fast.
                "Resistance" From the Album "All Else Failed" by Sollid State Reccords

Drums kick off, heavy distortion intro
F------------4------------------
C-2--2-2-3-2-4-3-0-2-0-2-0-6-0-3
G-2--2-2-3-2-2-3-0-2-0-2-0-6-0-3
C-2--2-2-3-2---3-0-2-0-2-0-6-0-3

1st Verse (2x)
F-----------4------------------------------4---------------------
C-2-2-2-3-2-4--3-0-2-0-2-0-6-0-3-3-2-2-3-2-4--3-0-2-0-2-0-0-6-0-3
G-2-2-2-3-2-2--3-0-2-0-2-0-6-0-3-2-2-2-3-2-2--3-0-2-0-2-0-0-6-0-3
C-2-2-2-3-2----3-0-2-0-2-0-6-0-3-2-2-2-3-2----3-0-2-0-2-0-0-6-0-3
I won't allow it I won't let it happen This weakness will be strengthened

F-----------4------------
C-2-2-2-2-3-4-3-3-3-3-3-2
G-2-2-2-2-3-2-3-3-3-3-3-2
C-2-2-2-2-3---3-3-3-3-3-2
Take away this battle

Chorus
C-7-7-8-7-7-8-0-0-0-0-0-7-7-8-7-8-8-10-12
G-7-7-8-7-7-8-0-0-0-0-0-7-7-8-7-8-8-10-12
C-7-7-8-7-7-8-0-0-0-0-0-7-7-8-7-8-8-10-12
Let your fire brun from within Purify...Purify. . . 

Post Chorus
F------------4------------------------------4-----------------
C-2--2-2-3-2-4--3-0-2-0-2-0-6-0-3-2-2-2-3-2-4--3-0-2-0-2-6-0-3
G-2--2-2-3-2-2--3-0-2-0-2-0-6-0-3-2-2-2-3-2-2--3-0-2-0-2-6-0-3
C-2--2-2-3-2----3-0-2-0-2-0-6-0-3-2-2-2-3-2----3-0-2-0-2-6-0-3
Don't release Your hand from me must surrender, must lay it down

Verse
C-12-13-13-12-13-12-0-10-13-12-13-13-12-13-12-0-10-13-10-9-10-9-10-9-10-9-0-0-0-0
G-12-13-13-13-13-12-0-10-13-12-13-13-12-13-12-0-10-13-10-9-10-9-10-9-10-9-0-0-0-0
C-12-13-13-12-13-12-0-10-13-12-13-13-12-13-12-0-10-13-10-9-10-9-10-9-10-9-0-0-0-0
What's to gain in my selfishness what will I promote and what will be pushed back

Verse x2
C-10-9-10-9-10-9-10-9-0-0-0-0-10-9-10-9-10-9-10-9
G-10-9-10-9-10-9-10-9-0-0-0-0-10-9-10-9-10-9-10-9
C-10-9-10-9-10-9-10-9-0-0-0-0-10-9-10-9-10-9-10-9
My hope must rise, strength come forward
Linking my hand in yours

Verse (2x)
F------------4----------------------------4--------------------
C-2-2-2-3-2-4-3-0-2-0-2-0-6-0-3-3-2-2-3-2-4-3-0-2-0-2-0-0-6-0-3
G-2-2-2-3-2-2-3-0-2-0-2-0-6-0-3-2-2-2-3-2-2-3-0-2-0-2-0-0-6-0-3
C-2-2-2-3-2---3-0-2-0-2-0-6-0-3-2-2-2-3-2---3-0-2-0-2-0-0-6-0-3
I won't allow it I won't let it happen This weakness will be strengthened

F-----------4------------
C-2-2-2-2-3-4-3-3-3-3-3-2
G-2-2-2-2-3-2-3-3-3-3-3-2
C-2-2-2-2-3---3-3-3-3-3-2
Take away this battle

Chorus
C-7-7-8-7-7-8-0-0-0-0-0-7-7-8-7-8-8-10-12
G-7-7-8-7-7-8-0-0-0-0-0-7-7-8-7-8-8-10-12
C-7-7-8-7-7-8-0-0-0-0-0-7-7-8-7-8-8-10-12
Let your fire brun from within Purify...Purify. . . 

Post Chorus
F------------4-----------------------------4----------------
C-2--2-2-3-2-4-3-0-2-0-2-0-6-0-3-2-2-2-3-2-4-3-0-2-0-2-6-0-3
G-2--2-2-3-2-2-3-0-2-0-2-0-6-0-3-2-2-2-3-2-2-3-0-2-0-2-6-0-3
C-2--2-2-3-2---3-0-2-0-2-0-6-0-3-2-2-2-3-2---3-0-2-0-2-6-0-3
Don't release Your hand from me must surrender, must lay it down

Verse
C-12-13-13-12-13-12-0-10-13-12-13-13-12-13-12-0-10-13-10-9-10-9-10-9-10-9-0-0-0-0
G-12-13-13-13-13-12-0-10-13-12-13-13-12-13-12-0-10-13-10-9-10-9-10-9-10-9-0-0-0-0
C-12-13-13-12-13-12-0-10-13-12-13-13-12-13-12-0-10-13-10-9-10-9-10-9-10-9-0-0-0-0
What's to gain in my selfishness what will I promote and what will be pushed back

Verse x3
C-10-9-10-9-10-9-10-9-0-0-0-0-10-9-10-9-10-9-10-9
G-10-9-10-9-10-9-10-9-0-0-0-0-10-9-10-9-10-9-10-9
C-10-9-10-9-10-9-10-9-0-0-0-0-10-9-10-9-10-9-10-9
My hope must rise, strength come forward
Linking my hand in yours 
Let your chains uphold me Linking my hand in yours

Ending Verse (speed metal here)
C-12-13-13-12-13-12-0-10-13-12-13-13-12-13-12-0-10-13-10-9-10-9-10-9-10-9-0-0-0-0
G-12-13-13-13-13-12-0-10-13-12-13-13-12-13-12-0-10-13-10-9-10-9-10-9-10-9-0-0-0-0
C-12-13-13-12-13-12-0-10-13-12-13-13-12-13-12-0-10-13-10-9-10-9-10-9-10-9-0-0-0-0
I won't break the bond No more will I remain he same

C-10-9-10-9-10-9-10-9-0-0-0-0-10-9-10-9-10-9-10-9-2-2-2-2-2-2-2-2-2-2-2-2
G-10-9-10-9-10-9-10-9-0-0-0-0-10-9-10-9-10-9-10-9-2-2-2-2-2-2-2-2-2-2-2-2
C-10-9-10-9-10-9-10-9-0-0-0-0-10-9-10-9-10-9-10-9-2-2-2-2-2-2-2-2-2-2-2-2
My God has ever loved himself in me       I am convinced I must stay

-Liberat Te Ex Inferis=-
            
Tabs too difficult? Try these video lessons and learn fast.


comments powered by Disqus
↑ Back to top | Tablatures and chords are parodies/interpretations of the original songs. You may use it for private study, scholarship, research or language learning purposes only