» » »

Zao, Intro Tabs (ver.1)

Artists:  A B C D E F G H I J K L M N O P Q R S T U V W X Y Z # 

Intro Tabs (ver.1)

Zao Tabs
 Rating:
4/5 (4 votes)
Intro lessons Tabs too difficult? Try these video lessons and learn fast
                
Dropped C tuning

Main: 4x
Guitar 1:
E-------------------------------------------------------------|
B-------------------------------------------------------------|
G------9--10----10------9--10----10-------9--9-9--9-5--5--5-5-|
D-(0)----------------------------------7--7--7-7--7-3--3--3-3-|
A-(0)--7--8-----8-------7--8-----8-----7--7--7-7--7-3--3--3-3-|
E--0---0--0--0--0----0--0--0--0--0---0-7--7--7-7--7-3--3--3-3-|

Guitar 2:
E-------------------------------------------------------------|
B-------------------------------------------------------------|
G------9--10----10------9--10----10-------9--9-9--9-5--5--5-5-|
D-(0)---------------------------------------------------------|
A-(0)--7--8-----8-------7--8-----8--------7--7-7--7-3--3--3-3-|
E-(0)---------------------------------------------------------|

Variation:
Guitar 1:
E-------|
B-------|
G--5--5-|
D--3--2-|
A--3--3-|
E--3--2-|

Guitar 2:
E----------|
B----------|
G--5----5--|
D----------|
A--3----3--|
E-(3)--(2)-|

Later in the main riff before distortion:
Guitar 3: Little feedback like hum on this guitar
E-(0)-|
B-(5)-|

When the distortion comes Guitar 1 plays a little different:
E-----------------------------------------------------------|
B-----------------------------------------------------------|
G--------------10~-------------10~---9--9--9-9--9-5--5--5-5-|
D------------------------------------7--7--7-7--7-3--3--3-3-|
A--------------8~--------------8~----7--7--7-7--7-3--3--3-3-|
E--0--(0-0-)--------0--(0-0-)--------7--7--7-7--7-3--3--3-3-|

Guitar 2 stays the same and Guitar 3 plays this:
E-0~-|
B-5b-|

End Variation:
Guitar 1:
E----------------------------------|
B----------------------------------|
G-9--9--9-9--9-5--5--5-5---5--5--5-|
D-7--7--7-7--7-3--3--3-3---2--2--2~|
A-7--7--7-7--7-3--3--3-3---3--3--3~|
E-7--7--7-7--7-3--3--3-3---2--2--2~|

Guitar 2:
E----------------------------------|
B----------------------------------|
G-9--9--9-9--9-5--5--5-5---5--5--5-|
D----------------------------------|
A-7--7--7-7--7-3--3--3-3---3--3--3~|
E----------------------------------|
            
Submit corrections

comments powered by Disqus
↑ Back to top | Zao Tabs for Intro. Lyrics for acoustic guitar and electric guitar. Tablatures and chords are parodies/interpretations of the original songs. You may use it for private study, scholarship, research or language learning purposes only