» » »

Zao, Instramental Tabs (ver.1)

Artists:  A B C D E F G H I J K L M N O P Q R S T U V W X Y Z # 

Instramental Tabs (ver.1)

Zao Tabs
Rating:
0/5 (0 votes)
Instramental lessons Tabs too difficult? Try these video lessons and learn fast
                this song is in drop "c" tuning
(c,g,c,f,a,d)

the drums start the song off.
d---------------------------------------
a---------------------------------------
f---------------------------------------
c-0-1--8--1--3-------------------------------
g-0-1--8--1--3------------------------------- play this through solo
c-0-1--8--1--3-------------------------------
solo:
d--------------------------------------------
a--------------------------------------------
f-12-7--10-3-5------12-7-10-5-3--------------  lots of times
c--------------------------------------------
g--------------------------------------------

d-------------------------------------------
a-------------------------------------------
f-12-7-10-3-5---0-----------0------------------------
c----------------0--3--------0---3--------5------
g----------------------1-3---------1--3---5------
c-----------------------------------------5--
            
Submit corrections

comments powered by Disqus
↑ Back to top | Zao Tabs for Instramental. Lyrics for acoustic guitar and electric guitar. Tablatures and chords are parodies/interpretations of the original songs. You may use it for private study, scholarship, research or language learning purposes only