» » »

Autopsy Tabs (ver.2)

Artists:  A B C D E F G H I J K L M N O P Q R S T U V W X Y Z # 

Autopsy Tabs (ver.2)

Zao
Rating:
0/5 (0 votes)

Hard to play? Try these video lessons and learn fast.
                drop d


intro
e|-------------|
B|-------------|
G|--7777-8888--|
D|--7777-8888--| x 2
A|--5555-5555--|
E|-------------|

verse:
e|-----------------|
B|-----------------|
G|-7--8--7--8--10--|
D|-7--8--7--8--10--|
A|-5--5--5--5--8---|
E|-----------------|

verse: (played over)
e|---------------------|
B|---------------------|
G|-7-7-8-7---7-7-8-9-9-|
D|---------8-----------|
A|---------------------|
E|---------------------|

e|----------------------|
B|----------------------|
G|----------------------|
D|----------------------|
A|----------------------|
E|--1--1--0~--1--1--3~--|
            
Hard to play? Try these video lessons and learn fast. | Correct




comments powered by Disqus
↑ Back to top | Tablatures and chords are parodies/interpretations of the original songs. You may use it for private study, scholarship, research or language learning purposes only