>
 >
White Christmas

White Christmas Guitar Tabs

Zakk Wylde - White Christmas chords, tabs, tablatures, lyrics

Guitar lessons | Add/correct | Request | Top 50 tabs Artists:  A B C D E F G H I J K L M N O P Q R S T U V W X Y Z 0-9

White Christmas Guitar Tabs – Zakk Wylde

CD, Sheet music, Poster

Do you like White Christmas? Share with your friends now
Tabs
WHITE CHRISTMAS
As recorded by Zakk Wylde
(From the 1998 Album MERRY AXEMAS VOLUME 2... MORE GUITARS FOR CHRISTMAS)

Arranged by Zakk Wylde
 

Gtr I (E A D G B E) - 'Gtr 1 (Lead acous)'
Gtr II (E A D G B E) - 'Gtr 2 (acous)'


 Intro
    Free Time Q=128
    N.C.
 4/4
  Gtr I
  a T T  E E  S  S S  S S   S   S  +T  T  S S S
|-------11-8-10----8h10p8-(11)-10-(10)-8--------:
|-----x---------10---------10------------10s8-5-:
|---x-------------------------------------------:
|-x---------------------------------------------:
|-----------------------------------------------:
|-----------------------------------------------:


                            PM
  S S S T T S S S S S S S S S S S T T
|-5------------------------------------:
|---5-8-8s3p1---3---1------------------:
|-------------2---2---2p0---0----------:
|-------------------------2---2h5-5s2p=:
|--------------------------------------:
|--------------------------------------:


        H.=H                Q=110
                            E
          |-3-| |-3-|
  S S S S E E E E E E E E   E  E   E   E   E   E   E   E    +W
|-------------------------:--------------------0--(0)-(0)-:-(0)----||
|-------------------------:----------------0--(0)--0--(0)-:-(0)----||
|-------------------------:------------1--(1)-(1)-(1)--1--:-(1)----||
|-0-----0-----------------:--------2--(2)-(2)-(2)-(2)-(2)-:-(2)----||
|---3-x---0-3h5-0-3h5-0---:----2--(2)-(2)-(2)-(2)-(2)-(2)-:-(2)----||
|-----------------------3-:-0-(0)-(0)-(0)-(0)-(0)-(0)-(0)-:-(0)----||


 Theme 1
  Moderately Q=120
  A                      D     A/C#
  Gtr I
  S E. +H.             S S +E   H        E E
|--------------------|-----------------------|
|--------------------|-----------------------|
|--------------------|-----------------------|
|--------------------|-----------------------|
|---4--(4)-----------|-4s5-(5)--4--------2-4-|
|-5------------------|-----------------------|
|
| Gtr II
| Q     E  E E E E E   S S  E   E  E E E E E
|--------------------|-----------------------|
|--------------2-----|------3--(2)-----2-----|
|-------2----2---2---|-------------2-----2---|
|----------2-------2-|---------------2-------|
|-0------------------|-4s5------4----------4-|
|--------------------|-----------------------|


  D                            A/E
   H.          Q            Q  H        Q
|------------------------|------------------|
|------------------------|------------------|
|------------------------|------------------|
|--0---------------------|-/4--2--------2---|
|-(0)--------------------|-/5---------------|
|------------------------|------------------|
|
|  Q   E E E E E  S  T T    Q  Q.    E  E E
|----------5-------------|-^2--0----(0)-0---|
|------3-----3-----------|-^3-------------2-|
|--------------2-(x)-----|-^2---------------|
|--------4-------------4-|-----2--------2---|
|-^5-----------------5---|------------------|
|------------------------|------------------|


  D      G#  D E          D    G#  D/F#      Asus4       A/D#
  Q  Q   Q   E  E   +Q     Q   Q   Q          H      +E  E  Q
|-----------------|------------------------|--------------------|
|-----------------|------------------------|--------------------|
|---------------4-|-(4)--------------------|--------------------|
|-4--4---6---7----|--------7---6---4-------|--2------(2)--------|
|-----------------|------------------------|-------------4s=5---|
|-----------------|------------------------|--------------------|
|
|                                  |-3-|
| Q  E E E E E  E    E  E  E E E E S S S E    Q  E E  E  E  E E
|----2-----4------|-------^5-4-----2h4p2---|--------------------|
|------3-------^5-|-------^x-----3-------3-|-----3-------2----3-|
|------------7-^4-|-(4)---^7---------------|-------2-----2------|
|-4--4---6---7-^6-|-----6-^7---6---4-------|-^2-------2--2-/4---|
|-5---------------|------------------------|-^0----------4-/5---|
|-----------------|------------------------|--------------------|


  A/C#              (B)   A/C#               (A)
  H.            E    E    H        H         E E H           Q
|-----------------------|------------------|-----------------------|
|-----------------------|------------------|-----------------------|
|-----------------------|------------------|-----------------------|
|-----------------------|------------------|-2s4-2-----------2s====|
|-4-------------0----2--|-4--------4-------|-----------------------|
|-----------------------|----------5-------|-----------------------|
|
|                                                |-3-|
| Q   E E S S E S S  E    E E E E  E E E E   Q   S S S E E E E E
|-----------------------|------------------|-0---------------------|
|-----2-------5---------|-----2------2-----|-----2h3p2p0-----------|
|-2-----2-4s6---6s4-(4)-|---2---2------2---|-------------2---2-----|
|-2---------------------|---------^2-----2-|-2-------------4---4s==|
|-4------------------2--|-4-------^4-------|-----------------------|
|-----------------------|------------------|-----------------------|


  F                    Dm                  A/C#
  Q  H       Q     E E H             Q     H.             Q
|----------------|-----------------------|--------------------|
|----------------|-----------------------|--------------------|
|----------------|-----------------------|--------------------|
|-0--------------|-----------------------|--------------------|
|----3-------3---|-5s7-5-------------5---|-4--------------4---|
|----------------|-----------------------|--------------------|
|
|                              |-3-|
| Q  E E E E E E   E E S S E E S S S E E   Q   +E  E E E  E E
|--------1-------|-----------------------|--------------------|
|----------1-1---|-3s5-6---6-------------|-----------2h3-^2---|
|------2-----2-0-|-2s4-5h7-5-7-5---------|---------2-----^2-2-|
|-3--3-----------|-----0-----7-5h7p5-3-2-|--------------------|
|----------------|-----------------------|-4---(4)------------|
|----------------|-----------------------|--------------------|


      A/C#      B   A     E           E/A       Eadd9/G#  E
  S S +E   Q    Q   E E    H      +E  E +E  E   W
|-----------------------|---------------------|--------------------||
|-----------------------|---------------------|--------------------||
|-----------------------|---------------------|--------------------||
|-----------------------|---------------------|--------------------||
|-4s5-(5)--4----2---0---|-------------0-(0)---|--------------------||
|---------------------4-|--0------(0)---------|-4------------------||
|
| E    E   E  E E E E E    Q  E E  E  E  E  E   E E E E E   E  E E
|----------0--------0---|----------0----------|-----2-----^(0)-----||
|-------------5-------2-|-------------0-------|---0---0---^(0)-0---||
|-4s===6--(6)---6s4-2---|-----1----------1--0h|=1----------------1-||
|-----------------------|-------2-------------|---------2----------||
|-----------------------|-^2----2-------------|--------------------||
|-----------------------|-^0------------------|--------------------||


 Theme 2
  A                 N.C.(DA/C#     B
  Gtr II
  E E H       E E   S  E. Q    Q   E. S
|-7s9-9-------9---|-9s10--9--------7--9s|
|-----------------|---------------------|
|-----------------|-6s=7--6-------------|
|-----------------|---------------------|
|-----------------|---------------------|
|-----------------|---------------------|
|
| Gtr I
| Q   E E E E E E   S  E. Q  a E E Q
|-----------------|---------------------|
|-----2-------2---|------------2---0----|
|-------2---2---2-|----------4---2------|
|---------2-------|---------------------|
|-4---------------|-4s=5--4--------2----|
|-5---------------|---------------------|


  D                                             A AsuA/C#
   Q   S  E.    +Q    E.      S      Q    Q.     Q    E
|-10---9s10----(10)----------12s==|=14--^12-----10----9--|
|----------------------------13s==|=15-------------------|
|---------------------------------|----------------------|
|---------------------------------|----------------------|
|---------------------------------|----------------------|
|---------------------------------|----------------------|
|
|  E E E     E   E  E E   S   T T    Q    Q   E  E E  E
|------------5--------------------|-^2----0---0----------|
|-^3-3-----------3----------------|-^3-----------3-2--2--|
|-^2----------------2-------------|-^2-------------------|
|-^4---4--------------4---------4-|-------2------2-------|
|-^5---------------------(x)--5---|-------0----------/4--|
|---------------------------------|----------------------|


  (D)                E
   |--3---| |--3---| |---3---|  |--3--|
   E E    E E  E   E E E     E  E E   E
|-10p9------9---------------------------|
|--------10---10------------------------|
|------------------9-9s7-----7--7s6---7-|
|---------------------------------------|
|---------------------------------------|
|---------------------------------------|
|
|  E   E    E    E   E    E     E   E
|--------------------4---------^5---7---|
|------------------------------^x-------|
|--------------------4---------^7-------|
|------4----6----4---6---(4)---^7---9---|
|--5------------------------------------|
|---------------------------------------|


             D                               Asus4              A/CD
   |---3---| |---3----|  |--3--| |---3---|
   E  E    E E  E    +E  E E   E E E     E    E  S  S S S E +E   E E E
|-10p=9------9-----------------------------|-----------------------------|
|---------10---10---(10)-------------------|-^5--5h=7-----5-(5)----0-----|
|-(7)--------------------9s7---7-7s6-----6-|-^6---------x----------------|
|------------------------------------------|---------------------7---7---|
|------------------------------------------|-----------------------------|
|------------------------------------------|-----------------------------|
|
| +E    E    E    E      E   E   E    E       E  E    E   E  E   E E E
|-(7)--------------------------------------|-----------------------------|
|------------------------------------------|----------3------------3-----|
|------------------------------------------|----(2)-------2----------2---|
|-(9)---7----6s===4------6---4---2---(0)---|-^2--------------2--/4-------|
|--------------------------------0---------|-^0--------------4--/5-------|
|------------------------------------------|-----------------------------|


  A/C#                    A                      D       A
  E E H         E    E      H       H          S  S  +E   Q  Q     E E
|-----------------------|-------------------|-12s14-(14)-12------^12---|
|-5-7-5-----------------|-^14------14-------|--------------------^-x---|
|-6---------------------|-------------------|--9s11-(11)--9------^-9---|
|---------------7----9--|-^11------11-------|--------------------------|
|-----------------------|-------------------|--------------------------|
|-----------------------|-------------------|--------------------------|
|
| Q   E E S S E S S  E      Q  E E  E E E E    S  S  +E   Q  E E   E E
|-----------------------|-------------------|--------------------------|
|-----2-------5------0--|------2--------2---|----------------2-----2---|
|-2-----2-4s6---6s4-(4)-|--------2----2---2-|------------------2-------|
|-2---------------------|-----------2-------|--3s=4--(4)--2------------|
|-4---------------------|---4---------------|--4s=5--(5)--0--------0---|
|-----------------------|-------------------|--------------------------|


  F                           Dm                            A/C#
           |----3-----|
  H        Q    Q     Q        H         E  E      E   E     Q  Q   E  E Q
|---------12---10-----9---|---10-----------10s====12------|---------9h10-9---|
|-------------------------|--------------------------(12)-|-14---------------|
|----------9----7-----6---|----7--------------------------|------------------|
|-------------------------|-------------------------------|-11---------------|
|-------------------------|-------------------------------|------------------|
|-------------------------|-------------------------------|------------------|
|
|                                           |-3-|
| E E E E  E S    S E   E   a  E E S S E E  S S S  E   E     Q  E E E  E Q
|----------0--------------|-------------------------------|------------------|
|-----1------1h===3-------|-1h=3p1-1h3-1-3----------------|---------2--------|
|---2---2-----------2-----|--------------2--0h2p0---------|-----2------2-----|
|-3-----------------------|--------0---------------3---2--|--2----2----------|
|-----------------------3-|-------------------------------|--4-----------4---|
|-------------------------|-------------------------------|------------------|


    D     A/C#      N.C.(A)
  Q       S  S  +E   Q    S  S  +E
|-----------------------------------|
|------------------------10h12-(12)-|
|-----------------------------------|
|---------9-11-(11)-(9)-------------|
|-----------------------------------|
|-----------------------------------|
|
| S S +E  Q          Q    Q
|-----------------------------------|
|-2s3-(3)-2-------------------------|
|-------------------------2---------|
|-----------------------------------|
|-4s5-(5)-4----------2----0---------|
|-----------------------------------|


  E/G#                      E
   Q   Q      E a  Q.       H         H
|-------------------------|--------------------||
|--9----------------------|--------------------||
|--9------------9h11------|-9------------------||
|-------------------------|--------------------||
|-------------------------|--------------------||
|-------------------------|--------------------||
|
|  Q   E   E  E    E  E E   E  E  E E E E E E
|-----(0)-----0-----------|-------0------------||
|------------------0------|---(0)---0---0------||
|--1------(1)---------2-0h|=1---------1-1------||
|---------(2)-------------|---------------2-2--||
|-------------------------|--------------------||
|-/4----------------------|--------------------||


 Theme 3
  N.C.(D)
   |-3-| |-3--|  |-3-| |-3-| |-3-| |-3-| |-3-| |-3-|
   S S S S  S S  S S S S S S S S S S S S S S S S S S
|-10p9p7-7-------------------------------------------|
|----------10-9-10-9-7-9-7---------------------------|
|--------------------------9-9p7p6-9p7p6-------------|
|----------------------------------------9p7p6-9p7p6-|
|----------------------------------------------------|
|----------------------------------------------------|
|
|  Q             E     E     E     E     Q
|----------------5-----4-----2-----4-----2-----------|
|----------------------------3-----------------------|
|----------------------------------------------------|
|--0-------------------------0-----------------------|
|----------------------------------------------------|
|----------------------------------------------------|


   |---3----|  |-3-| |-3-|  |-3--| |-3--|  |--3---| |-3--|
   E S S  S S  S S S S S S  S  S S S  S S  S S    S S  S S
|-10-9-7---------------------------------------------------|
|--------10-9-10-9-7-9-7-----------------------------------|
|------------------------9--9--7-9p7-11p9-11p9-------------|
|------------------------------------------------11p9------|
|-----------------------------------------------------12p9-|
|----------------------------------------------------------|
|
|  Q           E     E     +Q              S   S    E
|--5-----------2-----4-----(4)-------------2h==4p===2------|
|------------------------------------------3---------------|
|----------------------------------------------------------|
|--0---------------------------------------0---------------|
|----------------------------------------------------------|
|----------------------------------------------------------|


  A          D5           Bmadd4
   E  E E  E  E  E  Q     Q    E E Q   Q
|-------9-10-12----12---|-----10-9s7-------|
|-10-12-----------------|------------------|
|-----------------------|------------------|
|-----------------------|------------------|
|-----------------------|------------------|
|-----------------------|------------------|
|
|  H         +E  E  E E   E E  E E E E E E
|-----------------------|------0-----0-----|
|--2---------(2)-2--3---|-3------------3---|
|--2---------(2)------2-|-4s6----6s4-----4-|
|-------------------0---|------------------|
|--0---------(0)--------|------------------|
|-----------------------|------------------|


  D
  E  S  S  S  S  S  S  S  S  S  S  S   S  e
|------12----------12-----------------------|
|---15----12h14-15----14-15-12-14-12s=10-10-|
|-------------------------------------------|
|-------------------------------------------|
|-------------------------------------------|
|-------------------------------------------|
|
| E  Q           E     E     E    +E      E
|----------------------------4----(4)-------|
|-5s=7-----------7s====5------------------x-|
|-------------------------------------------|
|-0-----------------------------------------|
|-------------------------------------------|
|-------------------------------------------|
  W


  N.C.                           A                E
  E  Q     E T S. a T S. S S E   E E E  E E  E  E E   E E E E E E E E
|-------------------0----0-----|--------------------|------------------|
|------------------------------|-2-3-5-/7p5---------|------------------|
|-9s11----11s4h6--0h1h2--1h2h4-|-2----------(6)-7-7-|-7s6-6s4-4s2-2-4--|
|------------------------------|----------------7---|------------------|
|------------------------------|--------------------|------------------|
|------------------------------|--------------------|------------------|
|
| E  E  E  E E      E    Q       Q   E  E E  E  E E   E E E E H
|-5--5-/7--5-4------5----4-----|----------0---------|---0-0-0-0--------|
|------------------------------|--------2----0--2-0-|-3----------------|
|------------------------------|-2---2------------1-|-1---1------------|
|------------------------------|--------------------|------------------|
|------------------------------|-0------------------|------------------|
|------------------------------|--------------------|------------------|
                                 W


  Dadd6      D C#sus4    B A6sus4              A
  T S. E E E E E +Q      E E +Q    E E E  E    E E  E E E E E E
|--------7-------------|---------------------|------------------|
|------7---7-7---------|---------------2--3--|-3s5--5s7-7-5-5s3-|
|-7s9--------7---------|-----------2-4-------|------------------|
|-7s9------------------|---------------------|----------7---7---|
|--------------4-(4)---|-2-0-(0)-------------|-0----------------|
|----------------------|---------------------|------------------|
|                                              W
|
| E    E E E E E  E  E   E E  E  E E E E  E    Q    E E E E E E
|--------7-------------|-----------2---------|------------------|
|------7---7-----------|------3------3-------|-----^2-----------|
|------------7-6-------|-4-2-----2-----2-----|-----^2-2-----2---|
|-0---------------4----|---------------------|----------2-2---2-|
|------------5-4-----4-|-2-0-------------(0)-|-0----------0-----|
|----------------------|---------------------|------------------|


  F#m7               E                        E7sus2E5
  E E Q.     E E E    Q  H.             W
|------------------|------------------|-------------------|
|-3s2-2------2-0---|------------------|-------------------|
|--------------2-2-|-^4---------------|-------------------|
|------------------|-^2---------------|-------------------|
|------------------|------------------|-------------------|
|------------------|------------------|-------------------|
|
| Q   E  E E E E E    Q  E  E E E E E   S S E E E E E E E
|------------------|----------0-------|---------2-----0---|
|----------2-------|------------0-----|-----0-----3-----0-|
|-----2------2-----|-----1--------1---|-0h1---------------|
|--------------2-0-|--------2-------2-|-------2-----2-----|
|------------------|------------------|-------2-----------|
|-2------2---------|--0---------------|-------------------|


                                                    Theme 4
  Dadd4                      Dadd9                      A/C#
        >                            >
   Q   +Q    H                 Q    +H     E.  S      a  Q   +Q    H
|-^5---(5)-----------------|-^12---(12)-----------||-----------------------|
|-^7---(7)-----------------|-^10---(10)-----------||-10s12--(12)-----------|
|-^7---(7)-----------------|-^11---(11)-----------||-----------------------|
|--------------------------|-^12---(12)-------<7>-||-----------------------|
|--------------------------|----------------------||-----------------------|
|--------------------------|----------------------||-----------------------|
|
|  E E  E  E E E E S T  T      W                         Q    E  E E E E E
|--------------------------|-^-0------------------||-----------------------|
|------------3-------------|-^-3------------------||----------2------2-----|
|-------0------0-----------|-^-2------------------||-------------2-----2---|
|----4-----4-----4------4--|-^(4)-----------------||---------------2-----2-|
|--5-----------------5-(5)-|-^(5)-----------------||-----4-----------------|
|--------------------------|----------------------||-----------------------|


  A/C#  D  A/CA/B   A/C#
  S  E.    Q  Q     E  E
|-9s10-----9--------7--9--|
|-------------------------|
|-6s=7-----6--------------|
|-------------------------|
|-------------------------|
|-------------------------|
|
| E      E Q  E  E  E +E
|-------------------------|
|-------------2-----------|
|----------------2--------|
|-2-----/4-2--------2-----|
|-4-----/5-4--2-(2)-4-(4)-|
|-------------------------|


  D                                    A/E
    Q        +Q    Q   E.    S      Q   Q   Q   E.   a  S
|-^10-------(10)------------12s==|=14--12------10--(10)s9-|
|-^10-------(10)------------13s==|=15--14-----------------|
|-^-7--------(7)-----------------|------------------------|
|--------------------------------|------------------------|
|--------------------------------|------------------------|
|--------------------------------|------------------------|
|
|   S S +E    E  E E E E  S  T T    Q   H.
|------------------5-------------|-^2---0-----------------|
|-------------3------3-----------|-^3---------------------|
|----------------2-----2---------|-^2---------------------|
|------------------------------4-|------2-----------------|
|---4s5-(5)------------------5---|------------------------|
|--------------------------------|------------------------|


  D          G#      E        D  G#                D
                                    |--3--| |-3--|
    Q  E  E  Q     Q      H         S  S  S S  S S +E     E
|-----------------------|----------10--9----9---------------|
|-^10-------------------|----------------10---10-7-(7)------|
|-^-7--9s=7--7----------|---------------------------------9-|
|-----------------------|-----------------------------------|
|-----------------------|-----------------------------------|
|-----------------------|-----------------------------------|
|
|                                                   |-3-|
|   Q  E  E  E  E  E  E   E E  E E  E       E       S S S E
|------2--------4-------|-----^5-4-(4)--------------2h4p2---|
|---------3----------^5-|-----^7------------3-------------3-|
|------------------7-^4-|-4---^7----------------------------|
|---4--4-(4)-6-(6)-7-^6-|---6-------6---------------4-------|
|---5-------------------|-----------------------------------|
|-----------------------|-----------------------------------|


  A
  E  S   S   e    E  H
|------------------------------|
|------------------------------|
|-9s=7---7---7----6------------|
|------------------------------|
|------------------------------|
|------------------------------|
|
| E  S   S  +S  S E +E  E  Q
|----0h==2--------0-(0)--------|
|-2----------------------------|
|-2----------------------------|
|-----------------------2--4---|
|-0-(0)-(0)-(0)---------0-(0)--|
|------------------------------|


  A                                Bm
          |---3---|  |--3--|  |---3---|
  H       S  S    S  S  S  S  S  S    S  S   S
|----------------------------------------------|
|--------10-12---14-10-12-14-12-14---15-14--15-|
|----------------------------------------------|
|----------------------------------------------|
|----------------------------------------------|
|----------------------------------------------|
|
| Q  E E  S    S     E        S    S     E
|----------------------------------------------|
|----2---------------5--------5s===3----(3)----|
|------2--4s===6--------------6s===4----(4)----|
|-2--------------------------------------------|
|-0--------------------------------------2-----|
|----------------------------------------------|


  A/C#                  D     A/C#
   ~~
   H       H          q         H       Q
|------------------|----------^12-----------|
|-14------14-------|-14-------^14------14---|
|------------------|------------------------|
|------------------|------------------------|
|------------------|------------------------|
|------------------|------------------------|
|
|  Q  E E  E E E E    S S +E    Q  E E  Q
|------------------|------------------------|
|-----2------2-----|--2s3-(3)---2--2--------|
|-------2------2---|-----------------2------|
|----------------2-|--------------------2\--|
|--4-------4-------|--4s5-(5)---4-----------|
|------------------|------------------------|


  F                   C
  |-3--|       |---3----|
  Q    H      +Q    Q   Q
|-----10-----(10)---8---7-----|
|-----------------------------|
|-----------------------------|
|-----------------------------|
|-----------------------------|
|-----------------------------|
|
| E E    E E   E  E   E    E
|--------------1--------------|
|--------1--------1-----------|
|---2------2----------0h===2--|
|-----------------------------|
|---------------------3---(3)-|
|-1---------------------------|


  Dm                                A
  E      E   H              Q        E  E  E  E  H
|-8------7------------------------|----------------------|
|-----------10-------------10-----|-10s12-12s14-14-------|
|---------------------------------|----------------------|
|---------------------------------|----------------------|
|---------------------------------|----------------------|
|---------------------------------|----------------------|
|
|              |-3-|
| S  S   E   E S S S E  E   E  E     Q     E  E  E E E E
|-1------1------------------------|----------------------|
|-1h=3---1---3-1-----3--1---------|--------2-------2-----|
|------------2-0h2p0--------2-(2)-|-----------2------2---|
|-0-(0)-(0)----------3-(3)--0-(0)-|--------------------2-|
|---------------------------------|--4-------------------|
|---------------------------------|--5-----------5-------|


     D   A/C#               E
                                                      >
                                                      ~
   S  E.  Q   +E   E E  E     Q   +Q    E  E  +Q      W
|--------------------9h10-|-------------------------|-----------------||
|-14s15--14--(14)-12------|-^12--(12)-----10-(10)---|-9---------------||
|-------------------------|-^-x---------------------|-----------------||
|-11s12--11--(11)---------|-^-9---(9)---------------|-----------------||
|-------------------------|-------------------------|-----------------||
|-------------------------|-------------------------|-----------------||
|
|  S  E.  Q    E   E E  E     Q    E  E E  E   E  E   E E E E E E E E
|-------------------------|-------------0-----------|-------0---------||
|--2s=3--------2--------3-|----------------0--------|---0-----0-------||
|------------------2------|--------1-----------1--0h|=1---------1-----||
|---------2----------2----|-----------2-------------|-----2-------2---||
|--4s=5---4---------------|-------------------------|-----------------||
|-------------------------|---0---------------------|---------------0-||


 Theme 5
  Fmaj7+11            G6                    A
  Q.     E Q    Q      Q  +E  E  E E  E E   Q   E E Q   E E
|-------------------|---------------------|-----------------|
|-------------------|---------------------|-----------------|
|-------------------|---------------------|-----------------|
|--------3-5---/7---|-/9--(9)-9h10-9----7-|-7s==5-5-5s==3-2-|
|-------------------|----------------10---|-----------------|
|-------------------|---------------------|-----------------|
|
| E  E E E E E  E E    Q   E  E  E E  E E   E E E E E E E E
|----------0--------|---------0-----------|-------0---------|
|------------0------|------------0--------|---2-----0-2-----|
|------2--------2---|--------------0------|-------------2---|
|----3---3--------3-|---------------------|-----2---------2-|
|-------------------|--2---2------------2-|-0---------------|
|-1-----------------|--3---3----------3---|-----------------|


  A                             Fmaj7+11
  Q   S S S S S S S S S S S S   Q  S S S  S  S S S S S S S S
|-----------------------------|------------------------------|
|-----0h1p0-0-----------------|----0h1p0-(0)-----------------|
|-----------------------------|------------------------------|
|-2-----------5h7-3h5-2h3-0h2-|--------------5h7-3h5-2h3-0h2-|
|-----------------------------|------------------------------|
|-----------------------------|-1----------------------------|
|
| E E E   E   E   E   E   E     Q  E   E     E   E   E   E
|---------0---------------0---|--------------0---------------|
|-2-----------2---------------|----0-------------0-----------|
|---2-------------2-----------|--------2-------------2-------|
|-----2---------------2-------|--------------------------3---|
|-----------------------------|------------------------------|
|-----------------------------|-1----------------------------|


  G6                                  A                   Asus2
                                                          ~
  S S S  S  S S S S S S S S S S S S   E E E e E E +Q      Q   +Q    H
|-----------------------------------|-------------------|-------------------|
|-0h1p0-(0)-------------------------|-------------------|-------------------|
|-----------------------------------|-------------------|-------------------|
|-----------5h7-3h5-3h5-2h3-0h2-----|-------------------|-------------------|
|-------------------------------3h5-|-5s7-7-8---5-(5)---|-4---(4)-----------|
|-----------------------------------|-------------------|-------------------|
|
| Q         E   E   E   E   E   E     E E E E E E  E  E   E E  E  E E E E E
|---------------0-------------------|-----------------5-|------0------------|
|-------------------0---------------|-----2---0-2-------|-2-------0---------|
|-----------------------0-----------|-------2------2----|-------------------|
|-----------------------------------|---2---------------|-----------2-------|
|-----------2-------------------2---|-0-----------------|---0---------------|
|-3-------------------------3-------|-------------------|-------------5-4-3-|


  Fmaj7+11                    G6
        |-3--|                |----3----|   |----3----|
  Q  E  S  S S  Q    +E   E   Q    Q    Q   Q    Q    Q
|------------9-12---(12)-10-|-8-------------------------|
|---------10----------------|-----12---10---8---10---12-|
|------11-------------------|---------------------------|
|---------------------------|---------------------------|
|---------------------------|---------------------------|
|---------------------------|---------------------------|
|
| Q  E  E       E E   E   E   E E    E    E E E    Q
|---------------0-----------|-------------0-------------|
|----0------------0---------|---0-----------0-----------|
|-------2-------------2-----|--------0--------0----0----|
|-------------------------3-|---------------------------|
|---------------------------|---------------------------|
|-1-------------------------|-3-------------------------|


  A
                ~~~~
   E  E  E  E  +Q     +E   E
|----------------------------|
|-12s13-12-10-(10)---(10)----|
|-------------------------14-|
|----------------------------|
|----------------------------|
|----------------------------|
|
|  Q     E  E   E  E   E   E
|---------------0------------|
|--------2---------2---------|
|-----------2----------2-----|
|--------------------------2-|
|--0-------------------------|
|----------------------------|


  A
   S  S  S  S  S  S  S  S   S   S S S  S S S   +S
|--------------------------------------------------|
|-12h13p12h13--------------------------------------|
|-------------12h14-10h12p(10)-10-7h9----7-7b8r(7)-|
|-------------------------------------10-----------|
|--------------------------------------------------|
|--------------------------------------------------|
|
|  E     E     E     E      E     E    E   E
|--0-----------0-----------------------------------|
|--------2-----------2-----------------------------|
|---------------------------2----------------------|
|--------------------------------------------------|
|--------------------------------------------------|
|---------------------------------5----4---3-------|


  Fmaj7+11
  S S S S S S S S S S S S S S S S
|----------------------------------|
|----------------------------------|
|-5h7p5---7---5-------7-------5h7--|
|-------7---7---7p5h7---7-7-7------|
|----------------------------------|
|----------------------------------|
|
| Q       E   E   E   E   E   E
|-----------------0----------------|
|---------0-----------0------------|
|-------------2-----------2--------|
|-----------------------------3----|
|----------------------------------|
|-1--------------------------------|


  G6                                        A
              |-3-|
  S S S S S S S S S S S S S Q    a  Q    a   H.        +W
|------------------------------|---------------------|--------*|
|-5h8-5---8p5-5----------------|---------------------|--------*|
|-------7-------8p7p5---7---5--|---------------------|--------*|
|---------------------7---7----|-7s=5---(5)s=7-------|-(7)----*|
|------------------------------|---------------------|--------*|
|------------------------------|---------------------|--------*|
|
| Q       E   E     E   E   Q      +Q        H.        +W
|-------------------0----------|------------^5-------|-(5)----*|
|---------0-------------0------|------------^5-------|-(5)----*|
|-------------0-------------0--|---(0)------^2-------|-(2)----*|
|------------------------------|------------^2-------|-(2)----*|
|------------------------------|------------^0-------|-(0)----*|
|-3----------------------------|---------------------|--------*|




--------------------------------------------------------------------------------


Duration Legend
---------------
W - whole; H - half; Q - quarter; E - 8th; S - 16th; T - 32nd; X - 64th; a - acciaccatura
+ - note tied to previous; . - note dotted; .. - note double dotted
Uncapitalized letters represent notes that are staccato (1/2 duration)
Irregular groupings are notated above the duration line
Duration letters will always appear directly above the note/fret number it represents the
duration for.  Duration letters with no fret number below them represent rests.  Multi-
bar rests are notated in the form Wxn, where n is the number of bars to rest for.  Low
melody durations appear below the staff

Tablature Legend
----------------
 h   - hammer-on
 p   - pull-off
 b   - bend
 pb  - pre-bend
 r   - bend release (if no number after the r, then release immediately)
 /\  - slide into or out of (from/to "nowhere")
 s   - legato slide
 S   - shift slide
 - natural harmonic
[n]  - artificial harmonic
n(n) - tapped harmonic
 ~   - vibrato
 tr  - trill
 T   - tap
 TP  - trem. picking
 PM  - palm muting
\n/  - tremolo bar dip; n = amount to dip
 \n  - tremolo bar down
 n/  - tremolo bar up
/n\  - tremolo bar inverted dip
 =   - hold bend; also acts as connecting device for hammers/pulls
 <> - volume swell (louder/softer)
 x   - on rhythm slash represents muted slash
 o   - on rhythm slash represents single note slash

Misc Legend
-----------
 |  - bar
||  - double bar
||o - repeat start
o|| - repeat end
*|  - double bar (ending)
 :  - bar (freetime)
 $  - Segno
 &  - Coda
Tempo markers -  = BPM(8/16=s8/s16), where s8 = swing 8ths, s16 = swing 16ths



--------------------------------------------------------------------------------





Comments


Popular Zakk Wylde tabs & chords
Sold My Soul Bass Tabs
Evil Ways Chords
Road Back Home Chords
Way Beyond Empty Chords
Between Heaven And Hell Tabs
Chickin Pickin Tabs
Lovin' Woman 1 Tabs
No More Beers Tabs
Sweet Home Basildon Tabs
Too Numb To Cry Tabs


Song lyrics



↑ Back to top | Tablatures and chords are parodies/interpretations of the original songs. You may use it for private study, scholarship, research or language learning purposes only
© 2014 AZChords.com Contact us | Privacy policy | DMCA | Add/correct tabs | Request tabs | Top 50 tabs