» » »

Zakk Wylde, Too Numb To Cry Tabs (ver.1)

Artists:  A B C D E F G H I J K L M N O P Q R S T U V W X Y Z # 

Too Numb To Cry Tabs (ver.1)

Zakk Wylde Tabs
Rating:
0/5 (0 votes)
Too Numb To Cry lessons Tabs too difficult? Try these video lessons and learn fast
                of Vancouvers Omega Crom

(Piano arranged for guitar)3/4 time

Intro and Verse Riff

   em7        Dsus2      em/C#                    C      Csus2   C/G      G/D
||--0-------|--0-------|--0-------|--2h5-3---2--|--0-------0---|--0-------3--|
||.-3-------|--3-------|--0-------|--3---3---3--|--1-------3---|--1-------0--|
||--0-------|--2-------|--0-------|-------------|--0-------0---|--0-------0--|
||.-2-------|--0-------|--x-------|-------------|--2-------2---|----------0--|
||--2-------|----------|--4-------|-------------|--3-------3---|-------------|
||--0-------|----------|----------|-------------|--------------|-------------|

    1  2  3    1  2  3    1  2  3   1    2   3     1   2   3      1   2   3

  Bsus4      B
                       3X
--0-------|--------------|-|
--5-------|--4---------.-|-|
--4-------|--4-----------|-|
--4-------|--4---------.-|-|
--2-------|--2-----------|-|
----------|--------------|-|

  1  2  3    1   2   3


Chorus
   E               G#  A   B     C                          D/F#

||---0----------|-------------|-------------|-------------|-------------|
||-.-0----------|-------------|-------------|------0------|--3----------|
||---1----------|-------------|-------------|------0---0--|--2----------|
||-.-2----------|--6---7---9--|--10---------|-------------|--4----------|
||---2----------|--x---x---x--|--x----------|-------------|-------------|
||---0----------|--4---5---7--|--8----------|-------------|-------------|

    1   2   3      1   2   3     1   2   3     1   2   3     1   2   3


   D             Bsus4         B
                                         2X
|--2----------|--0----------|-------------||
|--3----------|--5----------|--4--------.-||
|--2----------|--4----------|--4----------||
|--0----------|--4----------|--4--------.-||
|-------------|--2----------|--2----------||
|-------------|-------------|-------------||

   1   2   3     1   2   3     1   2   3

- Now Verse Riff three times and Chorus twice, then:

   Esus4                          E
                                                         4X
||---0-----------|-------------|--0-----------|-------------||
||-.-0-----------|-------------|--0-----------|-----------.-||
||---2-----------|-------------|--1-----------|-------------||
||-.-2-----------|-------------|--2-----------|-----------.-||
||---2-----------|-------------|--2-----------|-------------||
||---0-----------|-------------|--0-----------|-------------||

This a piano piece arranged for acoustic chord strumming. Enjoy
            

comments powered by Disqus
↑ Back to top | Zakk Wylde Tabs for Too Numb To Cry. Lyrics for acoustic guitar and electric guitar. Tablatures and chords are parodies/interpretations of the original songs. You may use it for private study, scholarship, research or language learning purposes only