>
 >
Peddlers Of Death

Peddlers Of Death Guitar Tabs

Zakk Wylde - Peddlers Of Death chords, tabs, tablatures, lyrics

Guitar lessons | Add/correct | Request | Top 50 tabs Artists:  A B C D E F G H I J K L M N O P Q R S T U V W X Y Z 0-9

Peddlers Of Death Guitar Tabs – Zakk Wylde

CD, Sheet music, Poster

Do you like Peddlers Of Death? Share with your friends now
Tabs

Tuning - D G D G B G

4/4 Timing

 Intro
 4/4
  Gtr I
  E E E Q  E E E   +E  E E E E E  E  E
|-------0--------|-----------0----0----|
|-3-6------6---6-|-(6)-6-------2-(2)-2-|
|-0---0------0-0-|-(0)---0-0---0-(0)---|
|-3---3--------3-|-(3)-----3---3-(3)---|
|-0---0--------0-|-(0)-----0---0-(0)---|
|----------------|---------------------|


  E E E E E E E E   +E  E E E S S S S Q
|-----------------|-----------------------|
|-2h3-3---3-----2-|-(2)-------2h3p2p0-2---|
|-0-----0---0-0---|-----0---0-0-------0---|
|-0-----0-----0---|-------0-0-0-------0---|
|-0-----0-----0---|---------0-0-------0---|
|-----------------|-----------------------|


    E  E  E  E  E E E E   +E  E E E E E  E  E
||--------------0-------|-----------0----0----|
||o-3-/6--6-(6)---6-----|-----6-------2-(2)-2-|
||--0-(0)-0--0------0---|-------0-0---0-(0)---|
||--3-(3)-3-(3)---------|---------3---3-(3)---|
||o-0-(0)-0-(0)-------0-|-(0)-----0---0-(0)---|
||----------------------|---------------------|


  E E E E E E E E   +E  E E E S S S S Q
|-----------------|----------------------||
|-2h3-3---3-----2-|-(2)-------2h3p2p0-2-o||
|-0-----0---0-0---|-----0---0-0-------0--||
|-0-----0-----0---|-------0-0-0-------0--||
|-0-----0-----0---|---------0-0-------0-o||
|-----------------|----------------------||


  E  E  E  E  E E E E   +E  E E E E E  E  E
|-------------0-------|-----------0----0----|
|-3-/6--6-(6)---6-----|-----6-------2-(2)-2-|
|-0-(0)-0--0------0---|-------0-0---0-(0)---|
|-3-(3)-3-(3)---------|---------3---3-(3)---|
|-0-(0)-0-(0)-------0-|-(0)-----0---0-(0)---|
|---------------------|---------------------|


  W          E E E E E E E E   E E E E E E E E
|----------|-----0-----------|-----------------||
|-0--------|-0h1-------0-----|-----------------||
|-0--------|-------0h2-------|-0-------0-------||
|-0--------|-------------0h2-|-------0---0-----||
|-0--------|-----------------|---4h5-------2p0-||
|----------|-----------------|-----------------||


 Verse
  E  E E E E E E E   +E  E E E E E E E   Q  E E E E E E   +E  E E E  E E E E
|----------0-----|-----------0---0---|--------0-------|--------------------|
|------3-----3---|-----3-------1---1-|----0-----0-----|--------------------|
|--------0-----0-|-------0-----0-----|------0-----0---|-----0--------------|
|-2-/4-----------|---------4---2-----|----------------|-------0------------|
|-0-------------0|-(0)---------------|-0------------0-|-(0)-----0-/7-5-4-2-|
|----------------|-------------------|----------------|--------------------|


  E  E E E E E E E   +E  E E E E E E E   Q  E E E E E E   +E  E E E E E E E
|----------0------|-----------0---0---|--------0-------|-------------------|
|------3-----3----|-----3-------1---1-|----0-----0-----|-----0-------------|
|--------0-----0--|-------0-----0-----|------0-----0---|-------0-----------|
|-2-/4------------|---------4---2-----|----------------|---------0---------|
|-0--------------0|-(0)---------------|-0------------0-|-(0)-------0-2-4-5-|
|-----------------|-------------------|----------------|-------------------|


   (Vocals Enter) Verse Cont.
    E  E E E E E E E   +E  E E E E E E E
||-----------0-------|-----------0---0---|
||o------3-----3-----|-----3-------1---1-|
||---------0-----0---|-------0-----0-----|
||--2-/4-------------|---------4---2-----|
||o-0--------------0-|-(0)---------------|
||-------------------|-------------------|


  Q  E E E E E E   +E  E E E  E E E E
|--------0-------|--------------------||
|----0-----0-----|-----0-------------o||
|------0-----0---|-------0------------||
|----------------|---------0----------||
|-0------------0-|-(0)-------/7-5-4-2o||
|----------------|--------------------||


    E  E E E E E E E   +E  E E E E E E E   Q  E E E E E E   +E  E E E E E E E
|-----------0------|-----------0---0--|--------0-------|-------------------|
|o------3-----3----|-----3-------1---1|----0-----0-----|-----0------------o|
|---------0-----0--|-------0-----0----|------0-----0---|-------0-----------|
|--2-/4------------|---------4---2----|----------------|---------0---------|
|o-0--------------0|-(0)--------------|-0------------0-|-(0)-------0-2-4-5o|
|------------------|------------------|----------------|-------------------|


 Pre-Chorus
  E E E Q  E E E   E E E Q  E E E   E E E E E E E E   E  E  E E  E  E E E
|----------------|----------------|-----------------|-------0----0--------|
|-------0----0---|-------0----0---|-------0---------|-0h=1----1-(1)p0-----|
|-----0----0---0-|-----0----0---0-|-----0---0---0---|-0-(0)-----------0---|
|---3------------|---2------------|---0-------0-----|-0h=2--------------0-|
|----------------|----------------|-5-----4-----4s2-|-0-(0)---------------|
|-3--------------|-2--------------|-----------------|---------------------|


  E E E Q  E E E   E E E Q  E E E   E E E Q  E E E   E E E Q  E E E
|----------------|----------------|-------0--------|-2-----2--------|
|-------0----0---|-------0--------|-----3----3-----|---3------3-----|
|-----0----0---0-|-----0----0-----|---0--------0---|-----0------0---|
|---3------------|---2--------2p0-|----------------|----------------|
|----------------|----------------|-5------------5-|-5------------5-|
|-3--------------|-2--------------|----------------|----------------|


  E E E Q  E E E   E E E Q  E E E
|-4-----4--------|-4-----4-----------||
|---0------0-----|---0------0--------||
|-----0------0---|-----0------0------||
|----------------|-------------------||
|-5------------5-|-5------------5----||
|----------------|-------------------||


 Chorus
  E E E E E E E E   E E E Q  E E E   Q  E E E E E E   Q  E E E E E E
|-----------------|----------------|----------------|----------------|
|-------0---------|-------0----0---|----0-----------|----------------|
|-----2---2---0---|-----0----0---0-|------0-----0---|------0-------0-|
|---2-----------0-|---5------------|--------0-4---4-|-2--0---0---0---|
|-2---------4-----|-5--------------|-0--------------|----------7-----|
|-----------------|----------------|----------------|----------------|


  E E E E E E E E   E E E Q  E E E   Q  E E E E E E   Q  E E E E E E
|-----------------|----------------|--------0---0---|-0------0-------|
|-------0---------|-------0--------|-0--0-----1---1-|-0--0-----0-----|
|-----2---2---0---|-----0----0-----|-0----0---0-----|-0----0-----0---|
|---2-----------0-|---5--------5---|-0--------2-----|-0------------0-|
|-2---------4-----|-5------------5-|-0--------0-----|-0--------------|
|-----------------|----------------|----------------|----------------|


  E E E E E E E E   E E E Q  E E E   Q  E E E E E E   Q  E E E E E E
|-----------------|----------------|----------------|----------------|
|-------0---------|-------0--------|--------0-------|--------0-------|
|-----2---2---0---|-----0----0-----|----0-------0---|----0-------0---|
|---2-----------0-|---5--------5---|------0-------0-|------0-------0-|
|-2---------4-----|-5------------5-|-0--------------|----------------|
|-----------------|----------------|----------4-----|-2--------0-----|


  E E E E E E E E   E E E Q  E E E   Q  E E E E E E   Q  E E E E E E
|-----------------|----------------|--------0-0-0---|-0--0-----------|
|-------0---------|-------0--------|-0--0-----1---1-|-0--------------|
|-----2---2---0---|-----0----0-----|-0----0---0-----|-0--------------|
|---2-----------0-|---5--------5---|-0--------2-----|-0------0-------|
|-2---------4-----|-5------------5-|-0--------0-----|-0----4---5-4-2-|
|-----------------|----------------|----------------|----------------|


 Ending
  E E E Q  E E E   +E  E E E E E  E  E
|-------0--------|-----------0----0----|
|-3-6------6---6-|-(6)-6-------2-(2)-2-|
|-0---0------0-0-|-(0)---0-0---0-(0)---|
|-3---3--------3-|-(3)-----3---3-(3)---|
|-0---0--------0-|-(0)-----0---0-(0)---|
|----------------|---------------------|


  E E E E E E E E   +E  E E E S S S S Q
|-----------------|----------------------|
|-2h3-3---3-----2-|-(2)-------2h3p2p0-2--|
|-0-----0---0-0---|-----0---0-0-------0--|
|-0-----0-----0---|-------0-0-0-------0--|
|-0-----0-----0---|---------0-0-------0--|
|-----------------|----------------------|


    E  E  E  E  E E E E   +E  E E E E E  E  E
||--------------0-------|-----------0----0----|
||o-3-/6--6-(6)---6-----|-----6-------2-(2)-2-|
||--0-(0)-0--0------0---|-------0-0---0-(0)---|
||--3-(3)-3-(3)---------|---------3---3-(3)---|
||o-0-(0)-0-(0)-------0-|-(0)-----0---0-(0)---|
||----------------------|---------------------|


  E E E E E E E E   +E  E E E S S S S Q
|-----------------|----------------------||
|-2h3-3---3-----2-|-(2)-------2h3p2p0-2-o||
|-0-----0---0-0---|-----0-----0-------0--||
|-0-----0-----0---|-------0-0-0-------0--||
|-0-----------0---|---------0-0-------0-o||
|-----------------|----------------------||


  E  E  E  E  E E E E   +E  E E E E E  E  E     W          +W
|-------------0-------|-----------0----0----|-^<5>------|-(<5>)----|
|-3-/6--6-(6)---6-----|-----6-------2-(2)-2-|-^<5>------|-(<5>)----|
|-0-(0)-0--0------0---|-------0-0---0-(0)---|-^<5>------|-(<5>)----|
|-3-(3)-3-(3)---------|---------3---3-(3)---|-^<5>------|-(<5>)----|
|-0-(0)-0-(0)-------0-|-(0)-----0---0-(0)---|-^<5>------|-(<5>)----|
|---------------------|---------------------|-----------|----------|





Comments


Popular Zakk Wylde tabs & chords
Sold My Soul Bass Tabs
Dead As Yesterday Chords
In This River Chords
1,000,000 Miles Away Tabs
Bring The Noise 20xx Intro Tabs
Farewell Ballad Tabs
Just Killing Time Intro Tabs
Road Back Home Tabs
What You're Look'n For Tabs
White Christmas Tabs


Song lyrics



↑ Back to top | Tablatures and chords are parodies/interpretations of the original songs. You may use it for private study, scholarship, research or language learning purposes only
© 2014 AZChords.com Contact us | Privacy policy | DMCA | Add/correct tabs | Request tabs | Top 50 tabs