>
 >
No More Beers

No More Beers Guitar Tabs

Zakk Wylde - No More Beers chords, tabs, tablatures, lyrics

Guitar lessons | Add/correct | Request | Top 50 tabs Artists:  A B C D E F G H I J K L M N O P Q R S T U V W X Y Z 0-9

No More Beers Guitar Tabs – Zakk Wylde

CD, Sheet music, Poster

Do you like No More Beers? Share with your friends now
Tabs
Gtr I (D A D G B D) - 'Zakk dist electric'
Gtr II (D A D G B E) - 'Rhythm dist electric'

 Lead
  Q=123
 4/4
  Gtr I w/roto-vibe and wah
                                                     ~~~
   S  S  E  +Q    +H        +H      +E  E   Q     S  E.  +Q    Q   +Q
|------------------------|---------------------|-------------------------|
|-10s12s10-(10)--(10)----|-(10)----(10)-x\-12--|-------------------------|
|------------------------|-----------------12--|-10-----------10--(10)\--|
|-10s12s10-(10)--(10)----|-(10)----(10)-x\-----|----12--(12)--10--(10)\--|
|------------------------|---------------------|-------------------------|
|------------------------|---------------------|-------------------------|


              ~~~~~~~~
   E  a      +E   +Q    +H
|------------------------------|
|----13b15==(15)-(15)--(15)----|
|-/x---------------------------|
|-/x---------------------------|
|------------------------------|
|------------------------------|


         |--3--|
   S  S  S  S  S  S  S  a      +E   S  S  S  a      +S   S  S  S  S
|-10-13-10h12p10----10-------------10----------------------10-------|
|----------------13----13b15==(13)----13p10-------------10----13p10-|
|-------------------------------------------12b14==(14)-------------|
|-------------------------------------------------------------------|
|-------------------------------------------------------------------|
|-------------------------------------------------------------------|


                                       |-------6-------|
   S  S  S  S  S  S  S  S  S  S  S  S  S  S  S  S  S   S
|---------------------------------------------------------|
|----10----10-13----10-13----10-13----10-13----10-13------|
|-12----12-------12-------12-------12-------12-------(12)-|
|---------------------------------------------------------|
|---------------------------------------------------------|
|---------------------------------------------------------|


   |------6-------|        |--3--|  |------6-------|  |------6-------|
   S  S  S  S  S  S  S  S  S  S  S  S  S  S  S  S  S  S  S  S  S  S  S
|-------------------------------------------------10-15-13-10----10-15---|
|----10-13----10-13-10-13-10-13-10----10-13-10-13-------------13---------|
|-12-------12----------------------12------------------------------------|
|------------------------------------------------------------------------|
|------------------------------------------------------------------------|
|------------------------------------------------------------------------|


               |--3--|  |------6-------|  |------6-------|  |--3--|
   T  T  T  T  S  S  S  S  S  S  S  S  S  S  S  S  S  S  S  S  S  S  S  S
|-13-10----10-15-13-10-------------10-------------------------------------|
|-------13-------------13-10----10----13----------------------------------|
|----------------------------12----------13-12-10----10-13-10-10----------|
|-------------------------------------------------12-------------12-10-12-|
|-------------------------------------------------------------------------|
|-------------------------------------------------------------------------|


   ~~~~~~~~~~~
                     |--3--|
   a      +Q    +E   S  S  S  a   Q      +Q
|-------------------10-------13b-(14)===(15)--|
|-13b15==(15)--(15)----13-10------------------|
|---------------------------------------------|
|---------------------------------------------|
|---------------------------------------------|
|---------------------------------------------|


   +Q    +E   a      +E   E  E  Q
|-(16)--(16)-13b16==(16)r15-10---------|
|------------------------------13b15===|
|--------------------------------------|
|--------------------------------------|
|--------------------------------------|
|--------------------------------------|


    ~~~~
   +Q    +E    a      +E   +Q    S S  a      +E
|-------------------------------------------------|
|-(15)--(15)\-10b12==(12)-(12)r=10p8--------------|
|------------------------------------10b12==(12)r=|
|-------------------------------------------------|
|-------------------------------------------------|
|-------------------------------------------------|


                                             |--3--|  |--3--|
   +H.       +E    a      +E     +Q    +Q    E  E  E  E  E  E
|-----------------17b19==(19)-|-(19)r=(17)--17-16-15-13-15-15pb16-|
|-----------------------------|-----------------------------------|
|-(10)------(10)\-------------|-----------------------------------|
|-----------------------------|-----------------------------------|
|-----------------------------|-----------------------------------|
|-----------------------------|-----------------------------------|


                                   |-----6-----|
   +S   S  S  S  S  S  T  T  T  T  S  S  S  E  S  S  T  T  T  T  T  T
|-(15)r15p13----15----14h17-14h17-13h14p13-15-13h17-14h17-13h14p13----|
|------------15----15----------------------------------------------15-|
|---------------------------------------------------------------------|
|---------------------------------------------------------------------|
|---------------------------------------------------------------------|
|---------------------------------------------------------------------|


   |--3--|
   S  S  S  a      +E   +S   S  a      +E   a      +E   a      +E   a      +E   E
|-15----13-15b16==(16)-(16)-13-15b17==(17)-15b16==(16)-15b16==(16)-15b16==(16)-13-|
|----15---------------------------------------------------------------------------|
|---------------------------------------------------------------------------------|
|---------------------------------------------------------------------------------|
|---------------------------------------------------------------------------------|
|---------------------------------------------------------------------------------|


                 ~~
  S  E.  +S   S  E  +H
|-x-15--(15)-13------------|
|---------------15-(15)----|
|--------------------------|
|--------------------------|
|--------------------------|
|--------------------------|


            |------6-------|        |--3--|     |-----6-----|
   +E   E   S  S  S  S  S  S  a  E  S  S  S  a  E  S  S  S  S
|-------------------------------------------------------------|
|-(15)\-------------------------------------------------------|
|----------------10----12----10h11----12----10h11----12----10-|
|-------5/-10h12----12----12-------12----12-------12----12----|
|-------------------------------------------------------------|
|-------------------------------------------------------------|


         |--3--|  |------6-------|  |------6-------|  |------6-------|
   S  S  S  S  S  S  S  S  S  S  S  S  S  S  S  S  S  S  S  S  S  S  S
|----------------------------10----13----10----------------------------|
|-------10----12-10h13----------------------13-------10----12----10h12-|
|----------------------10h13----13----13-------------------------------|
|-10h12----12----------------------------------10h12----12----12-------|
|----------------------------------------------------------------------|
|----------------------------------------------------------------------|


                                                ~~
   |------6-------|
   S  S  S  S  S  S  a      +S   S  S  S  S  S  E  +E  S  S
|-----------------------------------------------------------|
|--------------------------------------------------------12-|
|-------10----12----12b13==(13)r12p10----12-10-12-(12)-x----|
|-------------------------------------12--------------------|
|-10h12----12----12-----------------------------------------|
|-----------------------------------------------------------|


                                      ~~~
   +E       +S   S      +S   S  S  S  Q.    +E
|------------------------------------------------|
|-(12)b13==(13)r12b13==(13)r12p10----------------|
|---------------------------------12-10----(10)\-|
|------------------------------------------------|
|------------------------------------------------|
|------------------------------------------------|


                                        ~
                                                |3|
  a      +Q    +Q    +E  S S a      +E  E   +E  E S E a  S  S  S  S   S  S  E  E
|-----------------------------------------|--------------------------------------|
|-----------------------------------------|-----------5s12h13p11h13-/12h13-13----|
|-9b10==(10)--(10)--(10)r9p7-9b10==(10)-9-|-(9)-9p7-------------------------0-12-|
|-----------------------------------------|---------9----------------------------|
|-----------------------------------------|--------------------------------------|
|-----------------------------------------|--------------------------------------|


         ~~
   S  S  E  +Q    a      +S   E.  +Q
|---------------------------------------|
|----------------13b15==(15)r13--(13)---|
|-10h12-10-(10)-------------------------|
|---------------------------------------|
|---------------------------------------|
|---------------------------------------|


                  ~~~~
   +E       +E   +Q    +Q   E   E
|---------------------------------|
|-(13)b15==(15)-(15)--(15)--------|
|---------------------------------|
|---------------------------------|
|---------------------------0-/12-|
|---------------------------------|


                                 ~~
               |------6-------|     |--3--|
   S  S  S  S  S  S  S  S  S  S  E  S  S  S  S  S  S  S
|--------------------------------------------------------|
|----------------------------------------------------10--|
|-------------------------------10-10-------------10-----|
|-------------10h12-10h12-10h12-------12-10-10h12--------|
|-10h12-10h12--------------------------------------------|
|--------------------------------------------------------|


         |--3--|              |--3--|  |------6-------|  |------6-------|
   S  S  S  S  S  T  T  T  T  S  S  S  S  S  S  S  S  S  S  S  S  S  S  S
|----------------10-------10----10-15-13-10-------13-10-------------------|
|----13p10----10----10h13----13-------------13-10-------13-10-------13-10-|
|-10-------13-------------------------------------------------12-10-------|
|-------------------------------------------------------------------------|
|-------------------------------------------------------------------------|
|-------------------------------------------------------------------------|


   |------6-------|  |------6-------|                 |------6-------|
   S  S  S  S  S  S  S  S  S  S  S  S  E  T  T  T  T  S  S  S  S  S  S
|-------13-10----------------------------------------------13-10-------|
|-------------13-10-------13-10-------13-13-10-------13-10-------13-10-|
|-12-10-------------12-10-------12-10----------12-10-------------------|
|----------------------------------------------------------------------|
|----------------------------------------------------------------------|
|----------------------------------------------------------------------|


   |------6-------|
   S  S  S  S  S  S  a      +Q    +Q    +E     +E
|-------------------13b15==(15)--(15)--(15.5)-(15)\-|
|-------13-10---------------------------------------|
|-12-10-------12-10---------------------------------|
|---------------------------------------------------|
|---------------------------------------------------|
|---------------------------------------------------|


                                ~~~~~~~
   a      Q.    +E        e  S  S  +Q
|-15pb17r15----(15)b15.5-13-13----------|
|------------------------------15-(15)--|
|---------------------------------------|
|---------------------------------------|
|---------------------------------------|
|---------------------------------------|


   +E   a      +E   +Q    +Q    E.  S
|-------------------------------------|
|-(15)-17b18==(18)-(18)--(18)--17--15-|
|-------------------------------------|
|-------------------------------------|
|-------------------------------------|
|-------------------------------------|


                                                     ~~~~
   a      +E   E  E  E  a      E  E      E  S  S    +H      a      +Q.    +E
|-------------15-16-17-17b19==17-----------------|-----------------------------|
|-17b19==(19)--------------------17pb18r17-15-17-|-(17)----17b18==(18)r==(17)--|
|------------------------------------------------|-----------------------------|
|------------------------------------------------|-----------------------------|
|------------------------------------------------|-----------------------------|
|------------------------------------------------|-----------------------------|


   ~~~
   H.      Q     +Q    +Q      E Q.     Q  Q  H
|--------------:----------------------:------------*|
|-15-----------:----------------------:------------*|
|--------------:----------------------:------------*|
|----------x\--:-(x)\--(x)\-----------:------------*|
|----------x\--:-(x)\--(x)\-----------:-0----------*|
|----------x\--:-(x)\--(x)\--/16s4----:-0----------*|
           pick scrapes

   Rhythm
    Gtr II
     W           W          W          W          W          W
||------------|-----------|----------|----------|----------|------|
||o-10--------|--8--------|-8--------|-6--------|-5--------|-6----|
||--10--------|--9--------|-7--------|-7--------|-5--------|-5----|
||--10--------|-10--------|-9--------|-7--------|-5--------|-3----|
||o-----------|-----------|----------|----------|----------|------|
||------------|-----------|----------|----------|----------|------|


  1.,2.                     3.
  W          +W             W          +H     +E  E +E  E   W          +W
|----------|-------------||----------|------------1-(1)-1-|-3--------|-(3)----|
|-3--------|-(3)--------o||-3--------|-(3)----(3)-1-(1)-1-|-3--------|-(3)----|
|-2--------|-(2)---------||-2--------|-(2)----(2)-x-(x)-x-|-0--------|-(0)----|
|-0--------|-(0)---------||-0--------|-(0)----(0)-3-(3)-3-|-0--------|-(0)----|
|-0--------|-(0)--------o||----------|--------------------|----------|--------|
|----------|-------------||----------|--------------------|----------|--------|


  W          +W           W          +W
|-1--------|-(1)--------|----------|------------|
|-1--------|-(1)--------|----------|------------|
|-3--------|-(3)--------|-5--------|-(5)--------|
|-3--------|-(3)--------|-5--------|-(5)--------|
|-1--------|-(1)--------|-3--------|-(3)--------|
|----------|------------|----------|------------|


  W          +E  E +E  E Q  Q    W
|----------|-------------------|------*|
|----------|-------------------|-3----*|
|-2--------|-(2)-5-(5)-5-5--5--|-2----*|
|-2--------|-(2)-5-(5)-5-5--5--|-0----*|
|-0--------|-(0)-3-(3)-3-3--3--|-0----*|
|----------|-------------------|-0----*|





Comments


Popular Zakk Wylde tabs & chords
Dead As Yesterday Chords
Too Numb To Cry Chords
Dead As Yesterday Tabs
Dead As Yesterday 1 Tabs
Guitar Battle Tabs
Machine Gun Man 3 Tabs
Sp Shuffle Tabs
Too Numb To Cry Tabs
Dead As Yesterday Ukulele
What Youre Looking For Ukulele


Song lyrics



↑ Back to top | Tablatures and chords are parodies/interpretations of the original songs. You may use it for private study, scholarship, research or language learning purposes only
© 2014 AZChords.com Contact us | Privacy policy | DMCA | Add/correct tabs | Request tabs | Top 50 tabs