>
 >
National Athem

National Athem Guitar Tabs

Zakk Wylde - National Athem chords, tabs, tablatures, lyrics

Guitar lessons | Add/correct | Request | Top 50 tabs Artists:  A B C D E F G H I J K L M N O P Q R S T U V W X Y Z 0-9

National Athem Guitar Tabs – Zakk Wylde

CD, Sheet music, Poster

Do you like National Athem? Share with your friends now
Tabs
Tuned down one whole step----low to high (D G C F A D)
|------------------------------------------------------0-------|
|------------------------------------------------------0-------|
|---------------------2---------h--h-------------------1-------|
|------h-h------------2---/11--9-11-9---7-------p-h----2-------|
|--7--4-7-4-----4--7--0--------------------4---6-4-6---2-------|
|------------5-------------------------------------------------|

                 trill
|--------------------------------------------------------------|
|----------b---------------------------------------------------|
|---------4-(6)--2424242---------------------------------2-----|
|--------------------------/6---4--6---7---7-------------2-----|
|-/7--7----------------------------------------7----4----0-----|
|--------------------------------------------------------------|

			        trill
|----------------------------------------------h--h------------|
|--------h-h--------------------b-------/14--12-14-12---10-----|
|-/9----6-9-6----6----6---9---12-(14)--------------------------|
|----------------7---------------------------------------------|
|---------------(0)--------------------------------------------|
|--------------------------------------------------------------|


			        trill
|------------------0----------------b--------------------------|
|------------------0--------------12-(14)----10-12-10---9------|
|-/6---8/68---9---1------9---9--------------------------------|
|------------------2-------------------------------------------|
|------------------2-------------------------------------------|
|------------------0-------------------------------------------|
		          Trill section~~~~~~~~~~~~~~~
|-------------------------------------9---9--9--10--12---12----|
|--7/9----10---10---/5---/2---2--------------------------------|
|-----------------------------2--------------------------------|
|-----------------------------2--------------------------------|
|-----------------------------0--------------------------------|
|--------------------------------------------------------------|

Fast Run that Repeats		Trill~~~~~~~~~~~~~~~~~~~

|-12-10-9-----------------9-10-12--|---10-9-7-9-10---10--------|
|---------12-10-9-9-10-12----------|---------------------------|
|.--------------------------------.|---------------------------|
|.--------------------------------.|---------------------------|
|----------------------------------|---------------------------|
|----------------------------------|---------------------------|
					         
                                    trill~~~~~~~~~~~~~~~~~~~~~
                                         
|----10-9-7---------------7-9-10--|----10--9--7----------------|
|-----------10-9-7-7-9-10---------|--------------10--12--10----|
|.-------------------------------.|----------------------------|
|.-------------------------------.|----------------------------|
|---------------------------------|----------------------------|
|---------------------------------|----------------------------|

		     //////
|--------------------------------------------0-----------------|
|---9---7-9-10-------------------------------0-----------------|
|------------------6---86/8---9-9---9-------1-----------------|
|--------------------------------------------2-----------------|
|--------------------------------------------2-----------------|
|--------------------------------------------0-----------------|


|--------------------------------------------------------------|
|--------------------------------------------------------------|
|--------------------------------------h-----------------------|
|----------7--7---7---6-7-6-----------7-9---/12--11---9--7--7--|
|---7---7--------------------9--9--9---------------------------|
|--------------------------------------------------------------|


						                                      /////
|-------------------------------------------------b------------|
|-----------------------------------10--12--14--15-(17)--------|
|-----------------------------9--9-----------------------------|
|--9---7-9-7---6-----------------------------------------------|
|--------------------------------------------------------------|
|--------------------16///-------------------------------------|


|--------------------------------------------------------------|
|---10--12---14----15---12----10----10-------------------------|
|------------------------------x-----x-------------------------|
|------------------------------7-----7-------------------------|
|-----------------------------------(0)------------------------|
|--------------------------------------------------------------|





Comments


Popular Zakk Wylde tabs & chords
Dead As Yesterday Chords
In This River Chords
Road Back Home Chords
Dead As Yesterday 2 Tabs
Machine Gun Man 1 Tabs
No More Beers Tabs
Star Spangled Banner Tabs
The Things You Do 1 Tabs
Too Numb To Cry Tabs
What Youe Lookin For Tabs


Song lyrics



↑ Back to top | Tablatures and chords are parodies/interpretations of the original songs. You may use it for private study, scholarship, research or language learning purposes only
© 2014 AZChords.com Contact us | Privacy policy | DMCA | Add/correct tabs | Request tabs | Top 50 tabs