>
 >
Heart Of Gold

Heart Of Gold Guitar Tabs

Zakk Wylde - Heart Of Gold chords, tabs, tablatures, lyrics

Guitar lessons | Add/correct | Request | Top 50 tabs Artists:  A B C D E F G H I J K L M N O P Q R S T U V W X Y Z 0-9

Heart Of Gold Guitar Tabs – Zakk Wylde

CD, Sheet music, Poster

Do you like Heart Of Gold? Share with your friends now
TabsTabs v2
Zakk Wylde - Heart of Gold
Tune down 1/2 step



Eb||---0-------------------0-0-0-0-0-------------||
Bb||---0-----0-0-----0-0-0-3-3-3-3-3-0---0-0-0---||
Gb||---0-0-0-0-0-0-0-0-0-0-2-2-2-2-2-0---0-0-0---||
Db||---2-2-2-2-2-2-2-2-2-2-0-0-0-0-0-2---2-2-2---||
Ab||---2-2-2-2-2-2-2-2-2-2-----------2---2-2-2---||
Eb||---0-0-0-0-0-0-0-0-0-0-----------0---0-0-0---||

FILL 1			FILL 2

Eb||-------------	Eb||---0--------------
Bb||-------------	Bb||-----0------------
Gb||---------0---	Gb||-------2h4p2p0----
Db||-------0-----	Db||----------------2-
Ab||---0h2-------	Ab||------------------
Eb||-------------	Eb||------------------

Eb||-------------------------------------------------------------------||
Bb||-------------------------------------------------------------------||
Gb||-------------------------------------------------------------------||
Db||---2---4-5---4---5-2---2---4-5---7---9---5-4-2---4-5---7---5-4-2---||
Ab||---2---4-5---4---5-2---2---4-5---7---9---5-4-2---4-5---7---5-4-2---||
Eb||---0---2-3---2---3-0---0---2-3---5---7---3-2-0---2-3---5---3-2-0---||

Verse

Eb||-------0---0-0-0-0-------------0---0-0-0---0-----------0---0-0-0-0-------------0-0-------------------||
Bb||-------0---0-0-0-0-------------0---0-0-0---0-----------0---0-0-0-0-------------0-0-------------------||
Gb||-------0---0-0-0-0-------------0---0-0-0---0-----------0---0-0-0-0-------------0-0-------------------||
Db||-------2---2-2-2-2-0h2-0-----4-------------------------2---2-2-2-2-0h2-0-----4-------0-------0-------||
Ab||-----2-------------2---2--/5-------------5-----0h2---2-------------2---2--/5-----------0-------0-----||
Eb||---0-----------------------------------------------0-------------------------------3-----3-2-----2---||

Chorus

Eb||---0-----3--------------------------------3---||
Bb||---0-----3---1---1-1---1-1----------------3---||
Gb||---0-----0---0---0-0---0-0----------------0---||
Db||---2-----0---2---2-2---2-2-----0---0---0--0---||
Ab||---2---x-x---3---3-3---3-3---3---2---0----x---||
Eb||---0---2-3--------------------------------3---||

Bridge

Eb||---------------------------||
Bb||---------------------------||
Gb||---------------------------||
Db||---2------/8-7-5-2---4-5---||
Ab||---2------/8-7-5-2---4-5---||
Eb||---0------/6-5-3-0---2-3---||





Comments


Popular Zakk Wylde tabs & chords
Between Heaven And Hell 2 Tabs
Chickin Pickin Tabs
Lovin' Woman 1 Tabs
Machine Gun Man Tabs
Machine Gun Man 1 Tabs
Star Spangled Banner Tabs
The Things You Do Tabs
What You're Look'n For Tabs
Dead As Yesterday Ukulele
Too Numb To Cry Ukulele


Song lyrics



↑ Back to top | Tablatures and chords are parodies/interpretations of the original songs. You may use it for private study, scholarship, research or language learning purposes only
© 2014 AZChords.com Contact us | Privacy policy | DMCA | Add/correct tabs | Request tabs | Top 50 tabs