>
 >
Dead As Yesterday 1

Dead As Yesterday 1 Guitar Tabs

Zakk Wylde - Dead As Yesterday 1 chords, tabs, tablatures, lyrics

Guitar lessons | Add/correct | Request | Top 50 tabs Artists:  A B C D E F G H I J K L M N O P Q R S T U V W X Y Z 0-9

Dead As Yesterday 1 Guitar Tabs – Zakk Wylde

CD, Sheet music, Poster

Do you like Dead As Yesterday 1? Share with your friends now
ChordsTabsTabs v2Tabs v3Ukulele



Tuning: D A D G B E




E|----------3------------3------------3--------------------------3-----------3---|
B|----4--4----4----4--4----4----4--4----4-----------4------4--4----4----4-4----4-|
G|-------2------------0------------0--------------0---0-------2-----------0------|
d|--0-------------------------------------------0-------0------------------------|
A|---------------3------------2------------0-h2-----------------------3----------|
D|-------------------------------------------------------------------------------|



E|--3---------------------3----------3---------3------------------|
B|--4-----------4-----4-4---4---4-4----4---4-4---4----------------|
G|--0---------0---0-----2---------0----------0------------0-------|
d|--0-------0-------0-----------------------------------0---------|
A|--2---0-2-------------------3----------2---------0-h2-----------|
D|----------------------------------------------------------0-1---|



E|-------------------------------3-------------------------------|
B|-----------------0-2-p0----4-4---4-----------------------------|
G|----0---------0--0-----------2-----2---------------------------|
d|------0----------2-----------------0---------------------------|
A|------------0--------------------------------------------------|
D|--2-----4-5--------------0-------------------------------------|



E|----------3--------------3---------------3--------------------|
B|----4--4-----4-----4--4-----4------4--4-----4-----------4-----|
G|-------2--------------0---------------0---------------0---0---|
d|--0-------------------------------------------------0---------|
A|----------------3---------------2--------------0-h2-----------|
D|--------------------------------------------------------------|
It'll leave you....


E|---------3----------3----------3-----------------------------------------|
B|----4--4---4---4--4---4---4--4---4-------------------------------0--2-p0-|
G|-------2----------0----------0------------0--------0---------0---0-------|
d|--0-------------------------------------0------------0-----------2-------|
A|-------------3----------2----------0-h2--------------------0-------------|
D|---------------------------------------------0-1-2-----4-5---------------|



E|---------3--------3-----------3-----------3----------3-----------------|
B|----4--4---4------4------4--4---4---4--4----4---4--4---4----------4----|
G|-------2-----2----2---------2----------0-----------0------------0---0--|
d|-------------0----0----0--------------------------------------0--------|
A|----------------------------------3-----------2----------0-h2----------|
D|--0--------------------------------------------------------------------|



E|---------3-----------------------------------------------3---------3---|
B|----4--4---4-----------------------------0--2-p0----4--4---4-------4---|
G|-------0------------0-------0---------0--0-------------0-----2-----2---|
d|------------------0-----------0----------2-------------------0-----0---|
A|--2----------0-h2-------------------0-------------2--------------------|
D|----------------------0-1-2-----4-5------------------------------------|



E|---------3----------3----------3------------------------------|
B|----4--4---4---4--4---4---4--4---4----------4-----------------|
G|-------2----------0----------0------------0---0---------------|
d|--0-------------------------------------0---------------------|
A|-------------3----------2----------0-h2-----------------------|
D|--------------------------------------------------------------|



E|--------3----------3----------3---------------------------------|
B|---4--4---4---4--4---4---4--4---4-------------------------------|
G|------2----------0----------0------------0----------------------|
d|-0-------------------------------------0------------------------|
A|------------3----------2----------0-h2--------------------------|
D|-------------------------------------------0-1------------------|



/ = repeat
/// = triplet


                                       (arpeggio)
E|---------------------------------3-----------------------------|
B|------------------0-2-p0----4--4---4--4-/-/--0-/---0-----------|
G|----0----------0--0------------2------2-/-/--0-/---2-----------|
d|-------0----------2-------------------0------0-----0-----------|
A|-------------0-------------------------------------2-----------|
D|--2------4-5--------------0------------------------------------|



E|--0---------------------------------------------------------------|
B|--0------///-/---///------0-/-/---0---///---0-/--///-/--0---/-----|
G|--0------///-/---///------0-/-/---0---///---0-/--///-/--0---/-0---|
d|--2-----------------------0-/-/---4---///---5-----------4-----0-/-|
A|--0-------------------5---------------------------------------5-/-|
D|------------------------------------------------------------------|



E|-----------------0--------------------------------------------|
B|--0--------------0--///-/----///----0-//--0---///-------------|
G|--2--------------0--///-/----///----0-//--0---///-------------|
d|--0--///-/--///--2------------------0-----4-------------------|
A|--2--///-/--///--0---------------5----------------------------|
D|--------------------------------------------------------------|



E|--------------------------------------------0------------------|
B|--0-/--///--0--//--/--------0---------------0--///-/--///------|
G|--0-/--///--0--//---0-------2---------------0--///-/--///------|
d|--5---------4-------0-------0--///-/---///--2------------------|
A|--------------------5-/-----2--///-/---///--0------------------|
D|---------------------------------------------------------------|



E|--------------------------------------------------------------|
B|-----0-//--0--///--0-/--///-/--0--/--/-------0----------------|
G|-----0-//--0--///--0-/--///-/--0--/--/--0----2--///-/--///----|
d|-----0-----4-------5-----------4--------0----0--///-/--///----|
A|--5-------------------------------------5----2----------------|
D|--------------------------------------------------------------|



E|--0-----------------------------------------------------------|
B|--0--///-/--///---0-/--///-/--0----/--------------------------|
G|--0--///-/--///---0-/--///-/--0----/-0-/---0------------------|
d|--2---------------5-----------4------0-/---0------------------|
A|--0----------------------------------5-----5------------------|
D|--------------------------------------------------------------|



E|---------3-------3-----------------------------------------3---3-----------|
B|----4--4---4-------4------------------------0--2-p0---4--4---4---4---------|
G|-------2------2-------------0------------0--0------------2---------2-------|
d|--------------0----------------0------------2------------------------------|
A|--------------------------------------0------------------------------------|
D|--0------------------0-1--2-------4-5---------------0-----------------0-1--|



E|--------------------------------------------------------------|
B|-------------0-------------0----------0---------0---------0---|
G|----0--------0--------5------5---5------5---0-----0---0-----0-|
d|------0------2-----------0----------0---------0---------0-----|
A|-------------0------3----------3----------2---------2---------|
D|--2-----4-5---------------------------------------------------|



E|------------------------------3----------3-------------------------|
B|---------0---------0-----4--4---4---4--4---4--------0---------0----|
G|----0------0---0-----0------2-----2----2--------5-----5---5-----5--|
d|-------0---------0----------------0---------------0---------0------|
A|--1----------1--------------------------------3---------3----------|
D|-----------------------0-------------------------------------------|



E|--------------------------------------------------------------|
B|--------0---------0------0------------------------------------|
G|----0-----0---0-----0----0------------------------------------|
d|------0---------0--------0------------------------------------|
A|--2---------2------------1------------------------------------|
D|--------------------------------------------------------------|





Comments


Popular Zakk Wylde tabs & chords
Between Heaven And Hell Chords
Way Beyond Empty Chords
Between Heaven And Hell 1 Tabs
Blood In The Wall Tabs
Color Green Tabs
Just Killing Time Intro Tabs
Machine Gun Man 1 Tabs
Machine Gun Man 3 Tabs
The River Song Tabs
Way Beyond Empty Tabs


Song lyrics



↑ Back to top | Tablatures and chords are parodies/interpretations of the original songs. You may use it for private study, scholarship, research or language learning purposes only
© 2014 AZChords.com Contact us | Privacy policy | DMCA | Add/correct tabs | Request tabs | Top 50 tabs