>
 >
Color Green

Color Green Guitar Tabs

Zakk Wylde - Color Green chords, tabs, tablatures, lyrics

Guitar lessons | Add/correct | Request | Top 50 tabs Artists:  A B C D E F G H I J K L M N O P Q R S T U V W X Y Z 0-9

Color Green Guitar Tabs – Zakk Wylde

CD, Sheet music, Poster

Do you like Color Green? Share with your friends now
Tabs
Intro
e-------5------------------------------------------------------------0-|
b----------7------8----------7----------5--------------------------0---|
g-------------7-------7---------7------------7---------7-------4/5-----|
d----0-------------------0----------0------------0----------0----------|
a----------------------------------------------------------------------|
e----------------------------------------------------------------------|

e--------0-------------------------------------------------------------|
b-----0------------0---------0-----------------------------------------|
g--4------------4---------0--------------------------------------------|
d------------5---------4------------------0-2/4---0-------------------|
a--------------------------------0-2/3--------------------------------|
e----------------------------------------------------------------------|

Versex2
e------0-2-2-2-3-2----------------3----3-3----3----0-2-2-2-3-2-2-2-0-2-|
b------3-3-3-3-3-3----------------3----3-3----3----3-3-3-3-3-3-3-3-3-3-|
g------2-2-2-2-2-2----------0--0--0----0-0----0----2-2-2-2-2-2-2-2-2-2-|
d-0-0--0-0-0-0-0-0--------2--0----0----0-2----0----0-0-0-0-0-0-0-0-0-0-|
a-------------------0-2-3--2------2----0-3----2------------------------|
e---------------------------------3-----------3------------------------|

e-0---0-2-2-2-3-2-2-2-0-2--|---------0----------0----------------------|
b-0---3-3-3-3-3-3-3-3-3-3--|----3------3----3-----3----3-----3---------|
g-2---2-2-2-2-2-2-2-2-2-2--|------0-----------0------0---------2-------|
d-3---0-0-0-0-0-0-0-0-0-0--|------------------------------0------------|
a--------------------------|--1-----------0----------------------------|
e--------------------------|-------------------------------------------|

e--0-2-----3-2-----0-2-------------------------------------------------|
b--3-3-3---3-3-3---3-3-------------------------------------------------|
g--------2-------2-----------------------------------------------------|
d----------------------------------------------------------------------|
a----------------------------------------------------------------------|
e----------------------------------------------------------------------|





Comments


Popular Zakk Wylde tabs & chords
Sold My Soul Bass Tabs
Way Beyond Empty Chords
All For You Tabs
Between Heaven And Hell 1 Tabs
Heart Of Gold Tabs
In This River Tabs
Just Killing Time Intro Tabs
Road Back Home Tabs
Star Spangled Banner Tabs
What Youre Looking For Ukulele


Song lyrics



↑ Back to top | Tablatures and chords are parodies/interpretations of the original songs. You may use it for private study, scholarship, research or language learning purposes only
© 2014 AZChords.com Contact us | Privacy policy | DMCA | Add/correct tabs | Request tabs | Top 50 tabs