» » »

Zakk Wylde, All For You Tabs (ver.1)

Artists:  A B C D E F G H I J K L M N O P Q R S T U V W X Y Z # 

All For You Tabs (ver.1)

Zakk Wylde Tabs
 Rating:
4/5 (4 votes)
All For You lessons Tabs too difficult? Try these video lessons and learn fast
                I tabed the bits i could but it is one hard song to tab so this is my best if you dont like it you do it.

Dropped D tuning

E|------------------------------------------------------------
B|------------------------------------------------------------
G|------------------------------------------------------------
D|------------------------------------------------------------
A|------------------------------------------------------------
D|--10-12-12--10-12-12--10-12-12--10-12-12--10-12-10-12-------
            
E|------------------------------------------------------------
B|------------------------------------------------------------
G|------------------------------------------------------------
D|------------------------------------------------------------
A|----------------------------------------3--5--3-------------
D|--10-12-12-10-12-12-10-12--0--6--0--6---0-----0-------------

E|------------------------------------------------------------
B|------------------------------------------------------------
G|------------------------------------------------------------
D|------------------------------------------------------------
A|--------3--5--5--3------------------------------------------
D|--0--0--0--------0--0--0--0--5-5-6-6-5-3--------------------

E|------------------------------------------------------------
B|------------------------------------------------------------
G|------------------------------------------------------------
D|------------------------------------------------------------
A|--3-5--3------3--5--5---------------------------------------
D|--0----0--0-0-0--------3--5--5--3--5--3---------------------


Lead:

E|------------------------------------------------------------
B|------------------------------------------------------------
G|------------------------------------------------------------
D|----------12------------12-14-----15-14-12------------------
A|-12-13-14---------13-14--------------------14--12-----------
D|------------------------------------------------------------

E|------------------------------------------------------------
B|----------------------12-14---15-14-12----------------------
G|-----------12---14-15------------------15---14--------------
D|--12-13-14--------------------------------------------------
A|------------------------------------------------------------
D|------------------------------------------------------------

E|----------------------12-14---15-14-12----------------------
B|-----------12---14-15------------------15---14--------------
G|--12-14-15--------------------------------------------------
D|------------------------------------------------------------
A|------------------------------------------------------------
D|------------------------------------------------------------

E|------------------------------------------------------------
B|------------------------------------------------------------
G|-10---22-22---10---10--22---22---9---21-21---9---9--21---21-
D|------------------------------------------------------------
A|------------------------------------------------------------
D|------------------------------------------------------------

E|------------------------------------------------------------
B|-----------------^----------------------^-------------------
G|-19--7--19--7---12-12---12--19--19--19--5--5-------5--------
D|------------------------------------------------------------
A|------------------------------------------------------------
D|------------------------------------------------------------

E|--XX---^-------------10-----------------10------------------
B|------12-12--12--12-----13--10--------------13--10---13--13-
G|--------------------------------12---12---------------------
D|------------------------------------------------------------
A|------------------------------------------------------------
D|------------------------------------------------------------

E|-10--12--10--13--10--12--10------------^-----10-------------
B|-----------------------------13--10--13-13-------13--10-----
G|---------------------------------------------------------12-
D|------------------------------------------------------------
A|------------------------------------------------------------
D|------------------------------------------------------------

E|------------------------------------------------------------
B|-10--13--10-----10--13--10-----10--13--10-----10--13--10----
G|------------12-------------12-------------12-------------12-
D|------------------------------------------------------------
A|------------------------------------------------------------
D|------------------------------------------------------------

E|------------------------------------------------------------
B|-10--12--10--13--10--12--10-------10-15----10--15----10--15-
G|-------------------------------13-------13--------13--------
D|------------------------------------------------------------
A|------------------------------------------------------------
D|------------------------------------------------------------

E|------------------------------------------------------------
B|-----10-15-----10-15-----10---------------------------------
G|--13--------13--------13-----14------14---------------------
D|------------------------------------------------------------
A|------------------------------------------------------------
D|------------------------------------------------------------

E|---------------------------------------------------------------
B|------------------------------------------------------13-15-17-
G|---------------------14-15-17----/-----------14-15-17----------
D|-----------14-15-17------------/---14-15-17--------------------
A|-13-15-17------------------------------------------------------
D|---------------------------------------------------------------

E|-------------------13-15-17--15-17-13----13--------13---------
B|----------13-15-17--------------------17----17-17--17--17--15-
G|-14-15-17-----------------------------------------------------
D|--------------------------------------------------------------
A|--------------------------------------------------------------
D|--------------------------------------------------------------
            
Submit corrections

comments powered by Disqus
↑ Back to top | Zakk Wylde Tabs for All For You. Lyrics for acoustic guitar and electric guitar. Tablatures and chords are parodies/interpretations of the original songs. You may use it for private study, scholarship, research or language learning purposes only