>
 >
Work Of Art

Work Of Art Guitar Tabs

Zack Hexum - Work Of Art chords, tabs, tablatures, lyrics

Guitar lessons | Add/correct | Request | Top 50 tabs Artists:  A B C D E F G H I J K L M N O P Q R S T U V W X Y Z 0-9

Work Of Art Guitar Tabs – Zack Hexum

CD, Sheet music, Poster

Do you like Work Of Art? Share with your friends now
Tabs
xxxxxxxxxxxxxxxxxxxxxxxxxxxxxxxxxxxxxxxxxxxxxxxxxxxxxxxxxxxxxxxxxxxxxxxxxxxxxxxxxxxxxxxxxxxxxxxxxx
                                        W o r k   O f   A r t
                             R e a l i s t i c   F a n t a s y   ( 2 0 0 5 )
                                         Z A C K   H E X U M
xxxxxxxxxxxxxxxxxxxxxxxxxxxxxxxxxxxxxxxxxxxxxxxxxxxxxxxxxxxxxxxxxxxxxxxxxxxxxxxxxxxxxxxxxxxxxxxxxx


                   + This file is the work of Jordan Lapping and represents his    +
                   + transcription of the song. You may only use this file for     +
                   + private study, scholarship, or research. The contents may not +
                   + permission. Thank you for understanding. Enjoy.               +
                   +---------------------------------------------------------------+



Tuning: E (Standard), Capo 3rd Fret


 CHORDS USED [relative to Capo]:
     Bm Bmadd4 Bm11    D     D7    D6  Dsus2 Gmaj7 G13b5 F#11
e]---2-----0-----0-----2-----x-----x-----0-----0-----0----0---|
B]---3-----3-----3-----3-----3-----3-----3-----3-----2----0---|
G]---4-----4-----4-----2-----2-----2-----2-----4-----0----3---|
D]---4-----4-----4-----0-----0-----0-----0-----4-----3----2---|
A]---2-----2-----0-----------3-----2-----0-----x-----4----x---|
E]---------------------------------------------3----------2---|

 INTRO:
    Bmadd4               Bm11                   G13b5             F#11
e]------------0h2p0-----------------0h2p0---------------0-----------------0--|
B]------3---------3-----------3---------3-------------2---2-------------0----|
G]------4-----------4---------4-----------4---------0-------0---------3------|
D]----4---4-----------4-----4---4-----------4-----3-----------3-----2--------|
A]--2-------2-------------0-------0-------------4----------------------------|
E]----------------------------------------------------------------2----------|

 VERSE 1:
    Bmadd4            Bm11              Gmaj7             G13b5     F#11
e]---------------------------------------------------------------------------|
B]------3-----3-----------3-----3-----------3-----3-----------2---------0----|
G]------4-----4-----------4-----4-----------4-----4-----------0---------3----|
D]----4---4-----2-------4---4-----4-------4---4-----4-------3---3-----2---2--| (x2)
A]--2-------2-----2---0-------0-----0---------------------4------------------|
E]--------------------------------------3-------3-----3-------------2--------|

Bmadd4                  Bm11                       Gmaj7
  In a sense she is just lines - lines and flowing arcs to a point
              G13b5              F#11
  That make a shape that I can't speak of
Bmadd4                  Bm11                  Gmaj7
  I have never seen such light - if you put a fire in a her eyes
              G13b5     F#11
  It wouldn't burn any brighter

 CHORUS 1:
    D     D7    D6    Dsus2   Gmaj7             G13b5     F#11
e]--2-2---x-x---x-x---0-0-0-----------0----------------------------|
B]--3-3---3-3---3-3---3-3-3---------3---------------2---------0----|
G]--2-2---2-2---2-2---2-2-2-------4-----4-----------0---------3----|
D]--0-0---0-0---0-0---0-0-0-----4---------4-------3---3-----2---2--|
A]--------3-3---2-2---0-0-0---------------------4------------------|
E]----------------------------3-------------3-------------2--------|

D           D7              D6
  And her charm is more than that
    Dsus2                Gmaj7
  A voice that's angled darker than colour
      G13b5        F#11
  And sparkles her other charms

 TRANSITION 1:
    Bmadd4               Bm11                   G13b5             F#11
e]------------0h2p0-----------------0h2p0---------------0-----------------0--|
B]------3---------3-----------3---------3-------------2---2-------------0----|
G]------4-----------4---------4-----------4---------0-------0---------3------|
D]----4---4-----------4-----4---4-----------4-----3-----------3-----2--------|
A]--2-------2-------------0-------0-------------4----------------------------|
E]----------------------------------------------------------------2----------|

 VERSE 2:
    Bmadd4            Bm11              Gmaj7             G13b5     F#11
e]---------------------------------------------------------------------------|
B]------3-----3-----------3-----3-----------3-----3-----------2---------0----|
G]------4-----4-----------4-----4-----------4-----4-----------0---------3----|
D]----4---4-----2-------4---4-----4-------4---4-----4-------3---3-----2---2--| (x2)
A]--2-------2-----2---0-------0-----0---------------------4------------------|
E]--------------------------------------3-------3-----3-------------2--------|

Bmadd4             Bm11                      Gmaj7
  What a mystery is this - a face I'll never kiss anyway
               G13b5           F#11
  But if you'd ask me it seems real still
Bmadd4                Bm11             Gmaj7
  Her eyes never look away - follow me into my sleep
          G13b5                F#11
  And in dreamland, they seem closer

 CHORUS 2:
    D     D7    D6   Dsus2  Gmaj7             G13b5     F#11
e]--2-2---x-x---x-x---0-0-----------0----------------------------|
B]--3-3---3-3---3-3---3-3---------3---3-----------2---------0----|
G]--2-2---2-2---2-2---2-2-------4-------4---------0---------3----|
D]--0-0---0-0---0-0---0-0-----4-----------------3---3-----2---2--|
A]--------3-3---2-2---0-0---------------------4------------------|
E]--------------------------3-------------3-------------2--------|

D           D7              D6
  And her charm is more than that
    Dsus2                Gmaj7
  A voice that's angled darker than colour
      G13b5        F#11
  And sparkles her other charms

 TRANSITION 2:
    Bmadd4               Bm11                   G13b5             F#11
e]------------0h2p0-----------------0h2p0---------------0-----------------0--|
B]------3---------3-----------3---------3-------------2---2-------------0----|
G]------4-----------4---------4-----------4---------0-------0---------3------|
D]----4---4-----------4-----4---4-----------4-----3-----------3-----2--------|
A]--2-------2-------------0-------0-------------4----------------------------|
E]----------------------------------------------------------------2----------|

 BRIDGE 1:
    D         D7        D6        Dsus2     Gmaj7             G13b5     F#11
e]--2-2-2-2---x-x-x-x---x-x-x-x---0-0-0-0---0-0-0-0-0-0-0-0---0-0-0-0---0-0-0-0--|
B]--3-3-3-3---3-3-3-3---3-3-3-3---3-3-3-3---3-3-3-3-3-3-3-3---2-2-2-2---0-0-0-0--|
G]--2-2-2-2---2-2-2-2---2-2-2-2---2-2-2-2---4-4-4-4-4-4-4-4---0-0-0-0---3-3-3-3--|
D]--0-0-0-0---0-0-0-0---0-0-0-0---0-0-0-0---4-4-4-4-4-4-4-4---3-3-3-3---2-2-2-2--|
A]------------3-3-3-3---2-2-0-0---0-0-0-0---x-x-x-x-x-x-x-x---4-4-4-4---x-x-x-x--|
E]------------------------------------------3-3-3-3-3-3-3-3-------------2-2-2-2--|

    D         D7        D6        Dsus2     Gmaj7             G13b5             F#11
e]--2-2-2-2---x-x-x-x---x-x-x-x---0-0-0-0---0-0-0-0-0-0-0-0-----------------------------0------|
B]--3-3-3-3---3-3-3-3---3-3-3-3---3-3-3-3---3-3-3-3-3-3-3-3-------2-----2-------------0---0----|
G]--2-2-2-2---2-2-2-2---2-2-2-2---2-2-2-2---4-4-4-4-4-4-4-4-------0-----0-----------3-------3--|
D]--0-0-0-0---0-0-0-0---0-0-0-0---0-0-0-0---4-4-4-4-4-4-4-4-----3---3-----3-------2------------|
A]------------3-3-3-3---2-2-0-0---0-0-0-0---x-x-x-x-x-x-x-x---4-------4-----4------------------|
E]------------------------------------------3-3-3-3-3-3-3-3---------------------2--------------|

  D  D7     D6          Dsus2
  She is a work of art
          Gmaj7           G13b5         F#11
  And she moves, yeah she moves right through me
  D  D7     D6          Dsus2
  She is a work of art
           Gmaj7 G13b5      F#11
  But she's only real in my mind, in my mind

 INTERLUDE:
    Bmadd4               Bm11                   G13b5             F#11
e]------------0h2p0-----------------0h2p0---------------0-----------------0--|
B]------3---------3-----------3---------3-------------2---2-------------0----|
G]------4-----------4---------4-----------4---------0-------0---------3------|
D]----4---4-----------4-----4---4-----------4-----3-----------3-----2--------| (x2)
A]--2-------2-------------0-------0-------------4----------------------------|
E]----------------------------------------------------------------2----------|

 BRIDGE 2:
    N/C                                     Gmaj7             G13b5     F#11
e]------------------------------------------0-0-0-0-0-0-0-0---0-0-0-0---0-0-0-0--|
B]------------------------------------------3-3-3-3-3-3-3-3---2-2-2-2---0-0-0-0--|
G]------------------------------------------4-4-4-4-4-4-4-4---0-0-0-0---3-3-3-3--|
D]------------------------------------------4-4-4-4-4-4-4-4---3-3-3-3---2-2-2-2--|
A]------------------------------------------x-x-x-x-x-x-x-x---4-4-4-4---x-x-x-x--|
E]------------------------------------------3-3-3-3-3-3-3-3-------------2-2-2-2--|

    D         D7        D6        Dsus2     Gmaj7             G13b5             F#11
e]--2-2-2-2---x-x-x-x---x-x-x-x---0-0-0-0---0-0-0-0-0-0-0-0---0-0-0-0-0-0-0-0-----------0--------|
B]--3-3-3-3---3-3-3-3---3-3-3-3---3-3-3-3---3-3-3-3-3-3-3-3---2-2-2-2-2-2-2-2---------0---0------|
G]--2-2-2-2---2-2-2-2---2-2-2-2---2-2-2-2---4-4-4-4-4-4-4-4---0-0-0-0-0-0-0-0-------3-------3----|
D]--0-0-0-0---0-0-0-0---0-0-0-0---0-0-0-0---4-4-4-4-4-4-4-4---3-3-3-3-3-3-3-3-----2-----------2--|
A]------------3-3-3-3---2-2-0-0---0-0-0-0---x-x-x-x-x-x-x-x---4-4-4-4-4-4-4-4--------------------|
E]------------------------------------------3-3-3-3-3-3-3-3---------------------2----------------|

  N/C
  She is a work of art
          Gmaj7           G13b5         F#11
  And she moves, yeah she moves right through me
  D  D7     D6          Dsus2
  She is a work of art
           Gmaj7 G13b5      F#11
  But she's only real in my mind, in my mind

 OUTRO:
    Bmadd4               Bm11                   G13b5             F#11              Bm
e]------------0h2p0-----------------0h2p0---------------0-----------------0---------2--|
B]------3---------3-----------3---------3-------------2---2-------------0---0-------3--|
G]------4-----------4---------4-----------4---------0-------0---------3-------3-----4--|
D]----4---4-----------4-----4---4-----------4-----3-----------3-----2-----------2---4--|
A]--2-------2-------------0-------0-------------4-----------------------------------2--|
E]----------------------------------------------------------------2--------------------|

xxxxxxxxxxxxxxxxxxxxxxxxxxxxxxxxxxxxxxxxxxxxxxxxxxxxxxxxxxxxxxxxxxxxxxxxxxxxxxxxxxxxxxxxxxxxxxxxxx

xxxxxxxxxxxxxxxxxxxxxxxxxxxxxxxxxxxxxxxxxxxxxxxxxxxxxxxxxxxxxxxxxxxxxxxxxxxxxxxxxxxxxxxxxxxxxxxxxx





Comments


Popular Zack Hexum tabs & chords
One Spin Chords
Sun Still Shines Chords
Little City Driver Tabs
Only A Rehearsal Tabs
Guiding Star Save The Date Ukulele
How Many Times Ukulele
Met A Girl Like You Once Ukulele
Rushing Back Ukulele
Treat Me Bad Ukulele
What If I Ukulele


Song lyrics



↑ Back to top | Tablatures and chords are parodies/interpretations of the original songs. You may use it for private study, scholarship, research or language learning purposes only
© 2014 AZChords.com Contact us | Privacy policy | DMCA | Add/correct tabs | Request tabs | Top 50 tabs