» » »

What If I Chords (ver.1)

Artists:  A B C D E F G H I J K L M N O P Q R S T U V W X Y Z # 

What If I Chords (ver.1)

Zack Hexum
Rating:
0/5 (0 votes)

Hard to play? Try these video lessons and learn fast.
                xxxxxxxxxxxxxxxxxxxxxxxxxxxxxxxxxxxxxxxxxxxxxxxxxxxxxxxxxxxxxxxxxxxxxxxxxxxxxxxxxxxxxxxxxxxxxxxxxx
                                          W h a t   I f   I
                               O p e n   T o   C l o s e   ( 2 0 0 7 )
                                         Z A C K   H E X U M
xxxxxxxxxxxxxxxxxxxxxxxxxxxxxxxxxxxxxxxxxxxxxxxxxxxxxxxxxxxxxxxxxxxxxxxxxxxxxxxxxxxxxxxxxxxxxxxxxx


                   + This file is the work of Jordan Lapping and represents his    +
                   + transcription of the song. You may only use this file for     +
                   + private study, scholarship, or research. The contents may not +
                   + permission. Thank you for understanding. Enjoy.               +
                   +---------------------------------------------------------------+



Tuning: E (Standard)


 CHORDS USED:
     A    A7   Bb   C    Dm   Eb   F    Gm
e]---x----5----x----0----5----x----1----3---|
B]---2----5----3----1----6----8----1----3---|
G]---2----6----3----0----7----8----2----3---|
D]---2----5----3----2----7----8----3----5---|
A]---4----7----1----3----5----6----3----5---|
E]--------5------------------------1----3---|



 INTRO:
    Dm           Gm           F            C      A
e]-------------------------------------------------------|
B]--------6------------3------------1----------1------2--|
G]------7---7--------3---3--------2---2------0------2----|
D]----7-------7----5-------3----3-------3----------------| (x2)
A]--5--------------------------------------3------4------|
E]---------------3------------1--------------------------|



 VERSE 1:
  Dm                                Gm
  Oh, she's in the sky, what can I say? I shouldn't try
            F                   C         A
  I wanna know you, how can I show you?
  Dm                          Gm
  I will play the part of a friend who lends a heart
          F                        C            A
  Just so I can see you want love desperately



 PRE-CHORUS 1:
                Dm
  Although you don't mean me
              Gm
  I dream the end we'd be
           F             Gm            A7
  So if I have to I'll stand here and wait



 CHORUS 1:
Eb                    Dm
  What if I were the kind of guy
              Bb            F          Gm        A7
  Who could bring to your stars, your diamonds?
Eb                    Dm
  I could be all you want and need
         Bb        F         Gm      A7
  But I'm not that - though I would try for you



 TRANSITION 1:
    Dm           Gm           F            C      A
e]-------------------------------------------------------|
B]--------6------------3------------1----------1------2--|
G]------7---7--------3---3--------2---2------0------2----|
D]----7-------7----5-------3----3-------3----------------|
A]--5--------------------------------------3------4------|
E]---------------3------------1--------------------------|



 VERSE 2:
  Dm                               Gm
  Oh, she's in the sky, what can I say as she passes by?
               F                           C             A
  I should've told you - what's the worst you could do?
     Dm                               Gm
  A "no" would let me go and then at least I would know
            F                     C              A
  If I'm to be alone at least my hand was shown



 PRE-CHORUS 2:
                  Dm
  And though you don't pick me
              Gm
  I dream the end we'd be
           F             Gm            A7
  So if I have to I'll stand here and wait



 CHORUS 2:
Eb                    Dm
  What if I were the kind of guy
              Bb            F          Gm        A7
  Who could bring to your stars, your diamonds?
Eb                    Dm
  I could be all you want and need
         Bb        F         Gm      A7
  But I'm not that - though I would try for you



 BRIDGE:
Dm - Gm - F - C - A (x2)
Dm - Gm - F - Gm - A7



 CHORUS 3:
Eb                    Dm
  What if I were the kind of guy
              Bb            F          Gm        A7
  Who could bring to your stars, your diamonds?
Eb                    Dm
  I could be all you want and need
         Bb        F         Gm      A7
  But I'm not that - though I would try for you



 OUTRO [to fade]:
    Dm           Gm           F            C      A
e]-------------------------------------------------------|
B]--------6------------3------------1----------1------2--|
G]------7---7--------3---3--------2---2------0------2----|
D]----7-------7----5-------3----3-------3----------------| (x7)
A]--5--------------------------------------3------4------|
E]---------------3------------1--------------------------|





xxxxxxxxxxxxxxxxxxxxxxxxxxxxxxxxxxxxxxxxxxxxxxxxxxxxxxxxxxxxxxxxxxxxxxxxxxxxxxxxxxxxxxxxxxxxxxxxxx

xxxxxxxxxxxxxxxxxxxxxxxxxxxxxxxxxxxxxxxxxxxxxxxxxxxxxxxxxxxxxxxxxxxxxxxxxxxxxxxxxxxxxxxxxxxxxxxxxx
            
Hard to play? Try these video lessons and learn fast. | Correct




comments powered by Disqus
↑ Back to top | Tablatures and chords are parodies/interpretations of the original songs. You may use it for private study, scholarship, research or language learning purposes only