» » »

Zack Hexum, Outside Opinion Tabs (ver.1)

Artists:  A B C D E F G H I J K L M N O P Q R S T U V W X Y Z # 

Outside Opinion Tabs (ver.1)

Zack Hexum Tabs
 Rating:
4/5 (4 votes)
Outside Opinion lessons Tabs too difficult? Try these video lessons and learn fast
                xxxxxxxxxxxxxxxxxxxxxxxxxxxxxxxxxxxxxxxxxxxxxxxxxxxxxxxxxxxxxxxxxxxxxxxxxxxxxxxxxxxxxxxxxxxxxxxxxx
                                    O u t s i d e   O p i n i o n
                             T h e   S t o r y   S o   F a r   ( 2 0 0 4 )
                                         Z A C K   H E X U M
xxxxxxxxxxxxxxxxxxxxxxxxxxxxxxxxxxxxxxxxxxxxxxxxxxxxxxxxxxxxxxxxxxxxxxxxxxxxxxxxxxxxxxxxxxxxxxxxxx


                   + This file is the work of Jordan Lapping and represents his    +
                   + transcription of the song. You may only use this file for     +
                   + private study, scholarship, or research. The contents may not +
                   + permission. Thank you for understanding. Enjoy.               +
                   +---------------------------------------------------------------+



Tuning: E (Standard)


 INTRO:
    G        A7/C#    Bb/D    C/E
e]-------------------------------------|
B]-------------------------------------|
G]--4-----4--2--------3-----3/5-----5--|
D]----5--------5---5----3-------5------| (x2)
A]------5--------4--------5-------7----|
E]-------------------------------------|



 VERSE 1:
    G        A7/C#    Bb/D    C/E
e]-------------------------------------|
B]-------------------------------------|
G]--4-----4--2--------3-----3/5-----5--|
D]----5--------5---5----3-------5------| (x4)
A]------5--------4--------5-------7----|
E]-------------------------------------|

    G             A7/C#    Bb/D   C/E
  When will I get over the idea
G             A7/C#         Bb/D   C/E
  That everyone has to love me?
        G               A7/C#      Bb/D   C/E
  You know I don't love everyone myself
      G                 A7/C#                 Bb/D   C/E
  So why should all the world treat me differently?



 PRE-CHORUS 1:
    Eb       E        F        Bb   Am
e]---------------------------------------|
B]---------------------------------------|
G]------8--------4--------5------7----5--|
D]----8---8----6---6----7---7--8----7----| (x2)
A]--6--------7--------8------------------|
E]---------------------------------------|

Eb      E       F      Bb          Am
  It's nothing new, I know you've felt it
Eb        E         F        Bb      Am
  Still this rings true, I'm nothing if not



 CHORUS 1:
G         A7/C#        Bb/D        C/E
  Just a servant to an outside opinion
G         A7/C#             Bb/D            C/E
  I can't tell you what you think, doesn't matter to me
G          A7/C#          Bb/D         C/E
  Why can't I just be an island on the ocean
G        A7/C#              Bb/D            C/E
  I need something from the outside for the inside of me



 TRANSITION 1:
    G    Am7 A9  Gm7/Bb Am7 A9    G    Am7 A9  Gm7/Bb Am7/C          
e]--3-----x--x-----x-----x--x--|--3-----x--x-----x-----x--|
B]--3-----x--0-----6-----x--0--|--3-----x--0-----6-----8--|
G]--4-----5--4-----7-----5--4--|--4-----5--4-----7-----9--|
D]--5-----5--5-----5-----5--5--|--5-----5--5-----5-----7--|
A]--5-----x--x-----x-----x--x--|--5-----x--x-----x-----x--|
E]--3-----5--5-----6-----5--5--|--3-----5--5-----6-----8--|



 VERSE 2:
    G        A7/C#    Bb/D    C/E
e]-------------------------------------|
B]-------------------------------------|
G]--4-----4--2--------3-----3/5-----5--|
D]----5--------5---5----3-------5------| (x4)
A]------5--------4--------5-------7----|
E]-------------------------------------|

   G             A7/C#           Bb/D   C/E
  Somedays I feel I can take the world
       G            A7/C#             Bb/D     C/E
  And put it on my shoulders for all eternity
      G            A7/C#      Bb/D   C/E
  But even in this lack of gravity
  G                A7/C#                          Bb/D   C/E
  I still need someone to just to stand there with me



 PRE-CHORUS 2:
    Eb       E        F        Bb   Am
e]---------------------------------------|
B]---------------------------------------|
G]------8--------4--------5------7----5--|
D]----8---8----6---6----7---7--8----7----| (x2)
A]--6--------7--------8------------------|
E]---------------------------------------|

Eb      E       F      Bb          Am
  It's nothing new, I know you've felt it
Eb        E         F        Bb      Am
  Still this rings true, I'm nothing if not



 CHORUS 2:
G         A7/C#        Bb/D        C/E
  Just a servant to an outside opinion
G         A7/C#             Bb/D            C/E
  I can't tell you what you think, doesn't matter to me
G          A7/C#          Bb/D         C/E
  Why can't I just be an island on the ocean
G        A7/C#              Bb/D            C/E
  I need something from the outside for the inside of me



 TRANSITION 2:
    G    Am7 A9  Gm7/Bb Am7 A9    G    Am7 A9  Gm7/Bb Am7/C          
e]--3-----x--x-----x-----x--x--|--3-----x--x-----x-----x--|
B]--3-----x--0-----6-----x--0--|--3-----x--0-----6-----8--|
G]--4-----5--4-----7-----5--4--|--4-----5--4-----7-----9--|
D]--5-----5--5-----5-----5--5--|--5-----5--5-----5-----7--| (x2)
A]--5-----x--x-----x-----x--x--|--5-----x--x-----x-----x--|
E]--3-----5--5-----6-----5--5--|--3-----5--5-----6-----8--|



 OUTRO:
G        Am7 A9        Gm7/Bb   Am7 A9     G    Am7 A9   Gm7/Bb     Am7/C 
  Just a servant to an outside opinion
G        Am7 A9        Gm7/Bb   Am7 A9     G    Am7 A9   Gm7/Bb     Am7/C      G
  Just a servant to an outside opinion




xxxxxxxxxxxxxxxxxxxxxxxxxxxxxxxxxxxxxxxxxxxxxxxxxxxxxxxxxxxxxxxxxxxxxxxxxxxxxxxxxxxxxxxxxxxxxxxxxx

xxxxxxxxxxxxxxxxxxxxxxxxxxxxxxxxxxxxxxxxxxxxxxxxxxxxxxxxxxxxxxxxxxxxxxxxxxxxxxxxxxxxxxxxxxxxxxxxxx
            
Submit corrections

comments powered by Disqus
↑ Back to top | Zack Hexum Tabs for Outside Opinion. Lyrics for acoustic guitar and electric guitar. Tablatures and chords are parodies/interpretations of the original songs. You may use it for private study, scholarship, research or language learning purposes only