» » »

Open To Close Tabs (ver.1)

Artists:  A B C D E F G H I J K L M N O P Q R S T U V W X Y Z # 

Open To Close Tabs (ver.1)

Zack Hexum
Rating:
0/5 (0 votes)

Tabs too difficult? Try these video lessons and learn fast.
                xxxxxxxxxxxxxxxxxxxxxxxxxxxxxxxxxxxxxxxxxxxxxxxxxxxxxxxxxxxxxxxxxxxxxxxxxxxxxxxxxxxxxxxxxxxxxxxxx
                                       O p e n   T o   C l o s e
                                 O p e n   T o   C l o s e   ( 2 0 0 7 )
                                          Z A C K   H E X U M
xxxxxxxxxxxxxxxxxxxxxxxxxxxxxxxxxxxxxxxxxxxxxxxxxxxxxxxxxxxxxxxxxxxxxxxxxxxxxxxxxxxxxxxxxxxxxxxxx


                   + This file is the work of Jordan Lapping and represents his    +
                   + transcription of the song. You may only use this file for     +
                   + private study, scholarship, or research. The contents may not +
                   + permission. Thank you for understanding. Enjoy.               +
                   +---------------------------------------------------------------+



Tuning: E (Standard)


 CHORDS USED:
     A    A7   C    D    D7   E    E7   F   G/B
e]---0----0----0----2----2----0----0----x----3---|
B]---2----2----1----3----1----0----0----1----0---|
G]---2----0----0----2----2----1----1----2----0---|
D]---2----2----2----0----0----2----0----3----0---|
A]---0----0----3--------------2----2----3----2---|
E]----------------------------0----0----1----x---|



 INTRO:
    A       Gmaj9   F#7     D      E7*   A       Gmaj9   Eadd9     D     E7*
e]------5---2-0---------0--------2/4---------5---2-0---------0---------2/4--|
B]--2h3---------3---2h3----------3/5-----2h3---------3-------0---------3/5--|
G]-----------------------------2---------------------------1---------2------|
D]--------------------------------------------------------------------------|
A]--0------------------------------------0----------------------------------|
E]----------3-------2-------0--------------------3-------2-------2-0--------|



 VERSE 1:
    A       Gmaj9   F#7     D      E7*   A       Gmaj9   Eadd9     D     E7*
e]------5---2-0---------0--------2/4---------5---2-0---------0---------2/4--|
B]--2h3---------3---2h3----------3/5-----2h3---------3-------0---------3/5--|
G]-----------------------------2---------------------------1---------2------|
D]--------------------------------------------------------------------------|
A]--0------------------------------------0----------------------------------|
E]----------3-------2-------0--------------------3-------2-------2-0--------|

    A       Gmaj9   F#7     D      E7*   Gmaj7     D       E   A             A7
e]------5---2-0---------0--------2/4-----------------2-----------------------------|
B]--2h3---------3---2h3----------3/5---------3-------3---------------2----------2--|
G]-----------------------------2-------------0-----2---2---1-------2---2--------0--|
D]-----------------------------------------4-----0---------2-----2-------2------2--|
A]--0------------------------------------2-----------------2---0-------------0-----|
E]----------3-------2-------0------------------------------0-----------------------|

          A         Gmaj9    F#7    D / E7* 
  It's a long drive south on 35
       A      Gmaj9            Eadd9     D / E7*
  The sun has bleached out the sky
   A              Gmaj9       F#7             D / E7* 
  Texas stretched wide, I'm swallowed inside
      Gmaj7          D   E    A    A7
  And this trip has just   begun




 CHORUS 1:
D         D7         G/B
  I know someone is waiting for me
    D              D7           F       C
  Still where the winter wind blows
D           D7               G/B
  When I arrive it can't be soon enough
            F           C         D      E7
  So we're singing from open to close



 VERSE 2:
    A       Gmaj9   F#7     D      E7*   A       Gmaj9   Eadd9     D     E7*
e]------5---2-0---------0--------2/4---------5---2-0---------0---------2/4--|
B]--2h3---------3---2h3----------3/5-----2h3---------3-------0---------3/5--|
G]-----------------------------2---------------------------1---------2------|
D]--------------------------------------------------------------------------|
A]--0------------------------------------0----------------------------------|
E]----------3-------2-------0--------------------3-------2-------2-0--------|

    A       Gmaj9   F#7     D      E7*   Gmaj7     D       E   A             A7
e]------5---2-0---------0--------2/4-----------------2-----------------------------|
B]--2h3---------3---2h3----------3/5---------3-------3---------------2----------2--|
G]-----------------------------2-------------0-----2---2---1-------2---2--------0--|
D]-----------------------------------------4-----0---------2-----2-------2------2--|
A]--0------------------------------------2-----------------2---0-------------0-----|
E]----------3-------2-------0------------------------------0-----------------------|

A        Gmaj9         F#7      D / E7* 
  I'm outside on your doorstep
   A              Gmaj9      Eadd9     D / E7*
  We'll film this all in one take
   A                  Gmaj9     F#7                  D / E7* 
  Your arms stretched wide; no better place to hide
        Gmaj7       D   E    A    A7
  Don't tell me if I'm not awake



 CHORUS 2:
D         D7         G/B
  I know someone is waiting for me
    D              D7           F       C
  Still where the winter wind blows
D           D7               G/B
  When I arrive it can't be soon enough
            F           C         D
  So we're singing from open to close



 BRIDGE:
       C#m6       Gmaj7      C#m6       Gmaj7      Gmaj7      Fmaj9    Gmaj7     A7
e]--------------------------------------------------------------------------------------|
B]---------0----------3----------0----------3----------3----------1----------3-------2--|
G]---------3----------0----------3----------0----------0----------0----------0-------0--|
D]-------2----------4----------2----------4----------4----------2----------4-------2----|
A]--2--4----------2-------2--4----------2-------0--------------------------------0------|
E]-------------2---------------------2-------------3-------3--1-------1--3--------------|



 CHORUS 1:
D         D7         G/B
  I know someone is waiting for me
    D              D7           F       C
  Still where the winter wind blows
D           D7               G/B
  When I arrive it can't be soon enough
            F           C         D
  So we're singing from open to close
         F           C         G
  We're singing from open to close
   F           C         D
  Singing from open to close



 HARMONICS INTERVAL:
    E   F#  D   A   A
e]--12-----------------|
B]------7--------------|
G]----------7----------|
D]--------------7------|
A]---------------------|
E]------------------5--|


                   +------------------------------NOTE-----------------------------+
                   + While the last A harmonic note is ringing on the low E string,+
                   + you will tune that string down a whole step or two half-steps.+
                   + This will give you "Drop D" tuning, for the final melody:     +
                   +---------------------------------------------------------------+


Tuning: Drop D (DADGBe)

        D
e]--------------------------------|
B]------3-----------3----------3--|
G]--------2-----2h4----0-----0----|
D]----------0h4----------0h2------| (x15)
A]--------------------------------|
D]--0-----------------------------|

        D
e]------------------------------------|
B]------3-----------3----------3------|
G]--------2-----2h4----0-----0--------|
D]----------0h4----------0h2----------|
A]------------------------------------|
D]--0------------------------------0--|



 HARMONICS OUTRO:
    E   F#  D   A   E   G
e]--12---------------------|
B]------7------------------|
G]----------7--------------|
D]--------------7----------|
A]------------------7------|
D]----------------------5--|





xxxxxxxxxxxxxxxxxxxxxxxxxxxxxxxxxxxxxxxxxxxxxxxxxxxxxxxxxxxxxxxxxxxxxxxxxxxxxxxxxxxxxxxxxxxxxxxxx

xxxxxxxxxxxxxxxxxxxxxxxxxxxxxxxxxxxxxxxxxxxxxxxxxxxxxxxxxxxxxxxxxxxxxxxxxxxxxxxxxxxxxxxxxxxxxxxxx
            
Tabs too difficult? Try these video lessons and learn fast.




comments powered by Disqus
↑ Back to top | Tablatures and chords are parodies/interpretations of the original songs. You may use it for private study, scholarship, research or language learning purposes only